>
 >
Dreaming Out Loud

Dreaming Out Loud Bass Tabs

Onerepublic - Dreaming Out Loud chords, tabs, tablatures, lyrics

Guitar lessons | Add/correct | Request | Top 50 tabs Artists:  A B C D E F G H I J K L M N O P Q R S T U V W X Y Z 0-9

Dreaming Out Loud Bass Tabs – Onerepublic

CD, Sheet music, Poster

Do you like Dreaming Out Loud? Share with your friends now
Bass TabsChordsUkulele
-------------------------------------------------------------------------------
-------------------------------------------------------------------------------


Tuning: Standard

1:21 with reverb
I'm dreaming out loud
G|-10~--12~\9~-10\7~-------10-10-12-10-|
D|-------------------10~---------------|
A|-------------------------------------|
E|-------------------------------------|

1:41
G|-14/16-|
D|-------|
A|-------|
E|-------|

Verse 01:45 turn off reverb
Curtain calls a sanctuary...
G|-------------------------------------|
D|-------------------------------------|
A|---12--------12-----------12---------|
E|-8---8-6~--8---8-6-5~---8---8-6~--3~-|2x 

Prechorus 02:07
Break, all my thoughts hit the floor...
G|---------------------------------------------------|
D|---------------8~------------------------8~--------|
A|-8~-10-12~---9/---10/15~-17~\8~-10-12~-9/---10/15~-|
E|---------------------------------------------------|

Chorus 02:28
I'm dreaming out loud...
G|------------------------------------------------------------| 
D|---------------------------------------------------10h12p10-|
A|------------------------------------------------------------|
E|-12\-1-1-11-11-1-3-5-5-55-5-5--66-6-66-6-8-88-88--8---------|

G|---------------------------------------------------|
D|---------------------------------------------------|
A|---------------------------------------------------|
E|-1-11/13-1313-13-15-5-5-55-5-5-6-6-66-6-6-8-8-88-8-|

Bridge 02:50
G|-------------------------|
D|-------------------------|
A|-------------------------|
E|-10-10-10-10-10-10-10-10-|

They don't care what you say...
G|-------------------------------|
D|-------------------------------|
A|-------------------------------|
E|-6-6-6-6-6-6-6-8-8-8-8-8-8-8-8-|2x

G|------------------|
D|------------------|
A|------------------|
E|-6-6-6-6-6-6-6-5~-|

03:22
Storm tries to come...
G|-------------------------------------------------------------|
D|-----------------------------------------15-17---------------|
A|-8~-/10-12~--12-13~--15~-15/17-15/17-15~-------15/17---15/17-|
E|-------------------------------------------------------------|

Chorus 03:41
I'm dreaming out loud
G|------------------------------------------------------------| 
D|---------------------------------------------------10h12p10-|
A|------------------------------------------------------------|
E|-12\-1-1-11-11-1-3-5-5-55-5-5--66-6-66-6-8-88-88--8---------|


G|--------------------------------------------|
D|----------------------------------------912-|
A|--------------------------------------------|
E|-1-1-11-1-1-5-55/15-66-6-66-6-8-88-8-88-----|

Outro
G|----------------------------------------------------------------|
D|----------------------------------------------------------------|
A|----------------------------------------------------------------|
E|-1-1/13-13-15-55-5-55-5-55-6-6-66-6-8-88-8-88-10-10-10-10-10-10-|


| /  slide up
| \  slide down
| h  hammer-on
| p  pull-off
| ~  vibrato
| +  harmonic
| x  Mute note
===============================================================================





Comments


Popular Onerepublic tabs & chords
All We Are 3 Chords
Feel Again 2 Chords
Lullaby 1 Chords
Secrets 2 Chords
Secrets 6 Chords
Someone To Save You 1 Chords
Stop And Stare 5 Chords
All Fall Down Ukulele
Missing Persons 1 And 2 Ukulele
Waking Up Ukulele


Song lyrics



↑ Back to top | Tablatures and chords are parodies/interpretations of the original songs. You may use it for private study, scholarship, research or language learning purposes only
© 2014 AZChords.com Contact us | Privacy policy | DMCA | Add/correct tabs | Request tabs | Top 50 tabs