» » »

Feelings Bass tabs (ver.2)

Artists:  A B C D E F G H I J K L M N O P Q R S T U V W X Y Z # 

Feelings Bass tabs (ver.2)

One Over
Rating:
0/5 (0 votes)

Hard to play? Try these video lessons and learn fast.
                "
Feelings
Intro
g|------------------------------------------------------------------
d|------------------------------------------------------------------
a|-----------------------------{
e|0-0--0-0--0-0--0-0--0-0-0-0--{then 0's to 1, then 3, and 2

g|-------------------------------------------------------------------
d|-------------------------------------------------------------------
a|0-0--0-0--0-0--0-0--0-0-0-0---{then o's to 1,then 3, and 5
e|------------------------------{

1st verse
g|-----------------------------------------------------------------
d|-----------------------------------------------------------------
a|--------------------------0-0--2--0-0--0-0--2-3(x2)---{
e|0-0--2--0-0--0-0--2-3(x2)-----------------------------{ x2

Chorus
g|-----------------------------------------------------------------
d|-----------------------------------------------------------------
a|----6--^----4---^----6---^-----4-----{
e|--0-------0--------0---------0-------{ x2  (^= rest)

Bass solo
g|-----------------------------------------------------------
d|-----------------------------------------------------------
a|---------------------------------------{
e|0-0--1-2---0-0--2-3--------------------{ x8

2nd verse
g|----------------------------------------------------------------
d|----------------------------------------------------------------
a|--------------------------0-0--2--0-0--0-0--2-3(x2)---{
e|0-0--2--0-0--0-0--2-3(x2)-----------------------------{ x2

Chorus
g|-----------------------------------------------------------------
d|-----------------------------------------------------------------
a|---6----^----4----^------6----^----4------{
e|--0---------0-----------0---------0-------{ x2

3rd verse
g|----------------------------------------------------------------
d|----------------------------------------------------------------
a|-----------------------------{
e|--0-0--12--0-0--0-0--12------{ x4

Ending
g|---------------------------------------------------------------
d|---------------------------------------------------------------
a|--------NOTHING------------------------------------------------
e|---------------------------------------------------------------


Bass, lead vocals: Ace Gentner     Guitar: Steve Browne
lead guitar: Brian Thompson       Drums: Mark Michaletti
"            
Hard to play? Try these video lessons and learn fast. | Correct




comments powered by Disqus
↑ Back to top | Tablatures and chords are parodies/interpretations of the original songs. You may use it for private study, scholarship, research or language learning purposes only