» » »

It's About Time Tabs (ver.1)

Artists:  A B C D E F G H I J K L M N O P Q R S T U V W X Y Z # 

It's About Time Tabs (ver.1)

One Night Only
Rating:
4/5 (3 votes)

Hard to play? Try these video lessons and learn fast.
                (Intro)
=================================
One Night Only - It's About Time
=================================

Catchy little opening riff, decided to tab it. Might do a full tab soon if you moan at me. 
The . over the x means its a palm mute.

Intro:
                             .
e|--4-------7-5-4------7----7x--|
B|--5--5p4----------3/5---5-5x--|
G|--6-----6------------------x--|
D|--6------------------------x--| x2
A|--4--------------0~--------x--|
E|--x------------------------x--|

e|-4--4--4--4-|-0--0--0--0-|-4--4--4--4-|-0--0--0--0-|-0~---------|
B|-5--5--4--5-|-0--0--0--0-|-5--5--4--5-|-0--0--0--0-|-0~---------|
G|-6--6--6--6-|-2--2--2--2-|-6--6--6--6-|-2--2--2--2-|-1~---------|
D|-6--6--6--6-|-2--2--2--2-|-6--6--6--6-|-2--2--2--2-|-2~---------|
A|-4--4--4--4-|-0--0--0--0-|-4--4--4--4-|-0--0--0--0-|-2~---------|
E|-x--x--x--x-|-0--0--0--0-|-x--x--x--x-|-0--0--0--0-|-0~---------|
            
Hard to play? Try these video lessons and learn fast. | Correct




comments powered by Disqus
↑ Back to top | Tablatures and chords are parodies/interpretations of the original songs. You may use it for private study, scholarship, research or language learning purposes only