>
 >
Break

Break Bass Tabs

One-eyed Doll - Break chords, tabs, tablatures, lyrics

Guitar lessons | Add/correct | Request | Top 50 tabs Artists:  A B C D E F G H I J K L M N O P Q R S T U V W X Y Z 0-9

Break Bass Tabs – One-eyed Doll

CD, Sheet music, Poster

Do you like Break? Share with your friends now
Bass TabsChordsTabsUkulele
-------------------------------------------------------------------------------
-------------------------------------------------------------------------------



Tuning: Drop D


===============================================================================

This is a very easy tune to play, even a drummer could play it. Oh wait, the
drummer DID play this part on the record! Only the riffs will be notated. Just
make sure you are in Drop D and throw away your G-D-A strings, you won't need
them! They will only get in the way, anyway.

===============================================================================


Riff 1A - Verse

     E  E  E  E  E  E  E  E     E  E  E  E  E  E  E  E    
G||--------------------------|--------------------------||
D||--------------------------|--------------------------||
A||--------------------------|--------------------------||
D||--0--0--0--0--3--3--3--0--|--2--2--2--2--2--2--2--2--||


Riff 1B - Verse

     E  E  E  E  E  E  E  E     Q    Q    Q    Q      
G||--------------------------|----------------------||
D||--------------------------|----------------------||
A||--------------------------|----------------------||
D||--0--0--0--0--3--3--3--0--|--2----2----2----2----||


Riff 2 - Chorus

     E  E  Q    E  E  Q       W                  
G||------------------------|-------------------||
D||------------------------|-------------------||
A||------------------------|-------------------||
D||--0--0-------0--0-------|-------------------||


Riff 3 - Bridge

      E   E   E  E   E   E  E  E      E  E  E  E  E  E  E  E   
G||-------------------------------|---------------------------|
D||-------------------------------|---------------------------|
A||-------------------------------|---------------------------|
D||--12--11--10--0--11--10--9--0--|--10--9--8--0--9--8--7--0--|


     E  E  E  E  E  E  E  E     E  E  E  E  E  E  E  E    
  |--------------------------|--------------------------||
  |--------------------------|--------------------------||
  |--------------------------|--------------------------||
  |--8--7--6--0--7--6--5--0--|--6--5--4--0--0--3--4--0--||


Riff 4 - Outro

      E  E  E  E  E  E  E  E   3x  Q  Q    H          
G||----------------------------||-------------------||
D||*--------------------------*||-------------------||
A||*--------------------------*||-------------------||
D||---3--4--5--0--5--6--7--0---||--0--0-------------||



Duration Legend
---------------
W - whole
H - half
Q - quarter
E - 8th







Comments


Popular One-eyed Doll tabs & chords
Break Chords
Be My Friend Tabs
Break Tabs
Brief Candle Tabs
Committed Tabs
Fight Tabs
I Love My Little Bus Tabs
Monster Tabs
Nudie Bar Tabs
Break Ukulele


Song lyrics



↑ Back to top | Tablatures and chords are parodies/interpretations of the original songs. You may use it for private study, scholarship, research or language learning purposes only
© 2014 AZChords.com Contact us | Privacy policy | DMCA | Add/correct tabs | Request tabs | Top 50 tabs