>
 >
Break

Break Guitar Tabs

One-eyed Doll - Break chords, tabs, tablatures, lyrics

Guitar lessons | Add/correct | Request | Top 50 tabs Artists:  A B C D E F G H I J K L M N O P Q R S T U V W X Y Z 0-9

Break Guitar Tabs – One-eyed Doll

CD, Sheet music, Poster

Do you like Break? Share with your friends now
Bass TabsChordsTabsUkulele
-------------------------------------------------------------------------------
-------------------------------------------------------------------------------


Tuning: Drop D



Riff 1A - Intro

      E   E   E  E  E  E  E  E     E  E  E  E  E   E  E   E    
E||-----------------------------|----------------------------||
B||-----------------------------|----------------------------||
G||-----------------------------|----------------------------||
D||--12--12--12-----3--3--3-----|--2--2--2--2----------------||
A||--12--12--12-----3--3--3-----|--2--2--2--2----------------||
D||--12--12--12--0--3--3--3--0--|--2--2--2--2--3p--2--3p--2--||


Riff 1B - Intro

      E   E   E  E  E  E  E  E     Q    Q    Q    Q      
E||-----------------------------|----------------------||
B||-----------------------------|----------------------||
G||-----------------------------|----------------------||
D||--12--12--12-----3--3--3-----|--2----2----2----2----||
A||--12--12--12-----3--3--3-----|--2----2----2----2----||
D||--12--12--12--0--3--3--3--0--|--2----2----2----2----||


Riff 2A - Verse

     PM PM PM PM PM PM PM       PM PM PM PM PM PM PM PM   
     E  E  E  E  E  E  E  E     E  E  E  E  E  E  E  E    
E||--------------------------|--------------------------||
B||--------------------------|--------------------------||
G||--------------------------|--------------------------||
D||--------------------------|--------------------------||
A||-----------------------0--|--------------------------||
D||--0--0--0--0--3--3--3--0--|--2--2--2--2--2--2--2--2--||


Riff 2B - Verse

     PM                                                   
     E  E  E  E  E  E  E  E     E  E  E  E  E  E  E  E    
E||--------------------------|--------------------------||
B||--------------------------|--------------------------||
G||--------------------------|--------------------------||
D||--------------------------|--------------------------||
A||--------------------------|--------------------------||
D||--0--0--0--0--3--3--3--0--|--2--2--2--2--2--2--2--2--||


Riff 2C - Verse

     E  E  E  E  E  E  E  E     E  E  E  E  E  E  E  E    
E||--------------------------|--------------------------||
B||--------------------------|--------------------------||
G||--------------------------|--------------------------||
D||--------------------------|--------------------------||
A||--0--0--0--0--3--3--3--0--|--2--2--2--2--2--2--2--2--||
D||--0--0--0--0--3--3--3--0--|--2--2--2--2--2--2--2--2--||


Riff 3A - Chorus

     E  E  Q    E  E  Q        E   E   E  E  E  E  E  E   
E||------------------------|-----------------------------|
B||------------------------|-----------------------------|
G||------------------------|-----------------------------|
D||--0--0-------0--0-------|--12--11--10-----7--6--5-----|
A||--0--0-------0--0-------|--12--11--10-----7--6--5-----|
D||--0--0-------0--0-------|--12--11--10--0--7--6--5--0--|


     E  E  Q    E  E  Q       E  E  E  E  E  E  E  E    
  |------------------------|--------------------------||
  |------------------------|--------------------------||
  |------------------------|--------------------------||
  |--0--0-------0--0-------|--------------------------||
  |--0--0-------0--0-------|--------------------------||
  |--0--0-------0--0-------|--3--4--5--0--5--6--7--0--||


Riff 4 - Bridge

      PM  PM  PM PM  PM  PM PM PM     PM PM PM PM PM PM PM PM  
      E   E   E  E   E   E  E  E      E  E  E  E  E  E  E  E   
E||-------------------------------|---------------------------|
B||-------------------------------|---------------------------|
G||-------------------------------|---------------------------|
D||-------------------------------|---------------------------|
A||-------------------------------|---------------------------|
D||--12--11--10--0--11--10--9--0--|--10--9--8--0--9--8--7--0--|


     PM PM PM PM PM PM PM PM    PM PM PM PM               
     E  E  E  E  E  E  E  E     E  E  E  E  E  E  E  E    
  |--------------------------|--------------------------||
  |--------------------------|--------------------------||
  |--------------------------|--------------------------||
  |--------------------------|--------------------------||
  |--------------------------|--------------------------||
  |--8--7--6--0--7--6--5--0--|--6--5--4--0--0--3--4--0--||


Riff 5 - Outro

      PM PM PM PM PM PM PM PM                           
      E  E  E  E  E  E  E  E   3x  Q    Q    H          
E||----------------------------||---------------------||
B||----------------------------||---------------------||
G||*--------------------------*||---------------------||
D||*--------------------------*||---------------------||
A||---3--4--5--0--5--6--7--0---||--0----0-------------||
D||---3--4--5--0--5--6--7--0---||--0----0-------------||



Duration Legend
---------------

H - half
Q - quarter
E - 8th

Tablature Legend
----------------

p - pull off








Comments


Popular One-eyed Doll tabs & chords
Break Bass Tabs
Break Chords
Be My Friend Tabs
Brief Candle Tabs
Committed Tabs
Fight Tabs
I Love My Little Bus Tabs
Monster Tabs
Nudie Bar Tabs
Break Ukulele


Song lyrics



↑ Back to top | Tablatures and chords are parodies/interpretations of the original songs. You may use it for private study, scholarship, research or language learning purposes only
© 2014 AZChords.com Contact us | Privacy policy | DMCA | Add/correct tabs | Request tabs | Top 50 tabs