» » »

One Direction, Summer Love Tabs (ver.1)

Artists:  A B C D E F G H I J K L M N O P Q R S T U V W X Y Z # 

Summer Love Tabs (ver.1)

One Direction Tabs
Rating:
0/5 (0 votes)
Summer Love lessons Tabs too difficult? Try these video lessons and learn fast
                Hi again :) This is my second tab and I worked hard. I love this song very much!
It's all written my Niall and I think Niall is perfect writer.
Enjoy! :) x

[Intro and Verse] [4x]

--------0-------0-2----------0-----0-2-----------0------0-2------|
----0---------0----------0-------0----------0---------0----------|
-----------------------------------------------------------------|
--2---2----2-----------1---1---1---------------------------------|
-----------------------------------------4-----4----4------------|
-----------------------------------------------------------------|

---------0------4-2-0--------------------------------------------|
---0-------------------------------------------------------------|
-----------------------------------------------------------------|
-----------------------------------------------------------------|
-0----0-----0----------------------------------------------------|
-----------------------------------------------------------------|

Can't believe you're packin your bags
Tryin' so hard not to cry
Had the best time and now its the worst time
But we have to say goodbye

[Pre-chorus] [2x]

--------------0---2----------------------------------------------|
-------4--------4---4--------------------------------------------|
-----0---0-------------------------------------------------------|
---1-------1-----------------------------------------------------|
-2---------------------------------------------------------------|
-----------------------------------------------------------------|

-----------------------------------------------------------------|
--------2-----------2--------------------------------------------|
------2---2-------2---2------------------------------------------|
----4-------4---4-------4----------------------------------------|
--4-----------4--------------------------------------------------|
-----------------------------------------------------------------|

Don't promise that you're gonna write
Don't promise that you'll call
Just promise that you won't forget we had it all

[Chorus] [4x]

  E          Bm        D         Am
--0--0-------2---2-----2---2------0--0---------------------------|
--0---0------3----3----3----3-----0----0-------------------------|
--1-1---1----4-4---4---2-2---2----1-1----1-----------------------|
--2----------4---------0----------2------------------------------|
--2----------2---------0----------2------------------------------|
--0----------2---------0----------0------------------------------|

Wish that we could be alone now
If we could find some place to hide
Make the last time just like the first time
Push a button and rewind

Don't say the word that's on your lips
Don't look at me that way
Just promise you'll remember
When the tide is grey


[Repeat the same Verse]

               E            Bm
Cause you were mine for the Summer
       D                Am
Now we know its nearly over
           E          Bm
Feels like snow in September
       D            Am
But I always will remember
         E    Bm       D
You were m----y Summer love
    Am             E    Bm   D
You always will be m----y  Summer love

Bridge:
   B
So please don't make this any harder
   C#m
We can't take this any farther
    Am
And I know there's nothin that I wanna change, change

[Chorus]
               E            Bm
Cause you were mine for the Summer
       D                Am
Now we know its nearly over
           E          Bm
Feels like snow in September
       D            Am
But I always will remember
         E    Bm       D
You were m----y Summer love
    Am             E    Bm   D
You always will be m----y  Summer love
            
Submit corrections

comments powered by Disqus
↑ Back to top | One Direction Tabs for Summer Love. Lyrics for acoustic guitar and electric guitar. Tablatures and chords are parodies/interpretations of the original songs. You may use it for private study, scholarship, research or language learning purposes only