» » »

One Direction, More Than This Tabs (ver.2)

Artists:  A B C D E F G H I J K L M N O P Q R S T U V W X Y Z # 

More Than This Tabs (ver.2)

One Direction Tabs
Rating:
5/5 (5 votes)
More Than This lessons Tabs too difficult? Try these video lessons and learn fast
                I learned this by ear and I'm positive that it's 95% correct. I'm just unsure about the 
bridge; the first Am played: Dm (Am) F5 Am.
But the rest is definitely correct.

Overall, this is a very easy song to play.

Doing a guitar cover soon!!

Enjoy! :D

---

[Intro: 1x / Verse 1: 2x]
E|----------------------------3----3-3-----3-0------1---3---|
A|-3----3-3---3-0----0-0----0-------------------------------|
D|----------------------------------------------------------|
G|--0-0----0-0---2-2----2-2----0-0----0-0-----0-0-0--0---0--|
B|---1------1-----1------1------3------3-------0-0----1---3-|
e|----------------------------------------------------------|

[Pre-Chorus 1]
E|---------------3----3-3----3-1----1-1----1-3--------------|
A|-0----0-0----0--------------------------------------------|
D|----------------------------------------------------------|
G|--2-2----2-2----0-0----0-0----0-0----0-0----0-0-----------|
B|---1------1------3------3------1------1--1-3-3------------|
e|----------------------------------------------------------|

[Chorus]
        C                                    G
When he opens his arms and holds you close tonight
                         Dm
It just won't feel right
               Am                 G
'Cause I can't love you more than this, yeah
	C				  G
When he lays you down, I just might die inside

It just don't feel right
	       Am		  G
'Cause I can't love you more than this
			   C
I can't love you more than this

[Verse 2]
C             Am
..If I'm louder, would you see me?
G                   F5             G5
..Would you lay down in my arms and rescue me?
C             Am
..'Cause we are the same
G
..You saved me
F5                        G5
..But when you leave, it's scarred again

[Pre-Chorus 2]
Am                         G
..And then I see you on the street
                   F5
In his arms, I get weak

My body fails
          G5(hold)
I'm on my knees, praying

[Chorus]

[Bridge]
Dm                           Am
..I've never had the words to say
                          F5
But now I'm asking you to stay
                     Am
For a little while inside my arms
Dm                            Am
..And as you close your eyes tonight
                                F5
I'll pray that you will see the light
                        Am(hold)
That's shining from the stars above

Chorus

[End on]
C

---


c:
xx
            

comments powered by Disqus
↑ Back to top | One Direction Tabs for More Than This. Lyrics for acoustic guitar and electric guitar. Tablatures and chords are parodies/interpretations of the original songs. You may use it for private study, scholarship, research or language learning purposes only