» » »

One Direction, Little Things Tabs (ver.2)

Artists:  A B C D E F G H I J K L M N O P Q R S T U V W X Y Z # 

Little Things Tabs (ver.2)

One Direction Tabs
 Rating:
4/5 (4 votes)
Little Things lessons Tabs too difficult? Try these video lessons and learn fast
1
                Little Things - One Direction ( Take Me Home )


Tuning: Standard


 For Intro, Verse 1 and 2 :           

              G

|-------2--------------2--------------2--------------2-------|
|-------2--------------2--------------2--------------2-------|
|-------0--------------0--------------0--------------0-------|
|----0--------------0--------------0--------------0----------|
|------------------------------------------------------------|
|--2--------------2--------------2--------------2------------|

                         Cadd9            

|-------------2--------------------2--------------------2--------------------2----|
|-------------2--------------------2--------------------2--------------------2----|
|-------------0--------------------0--------------------0--------------------0----|
|----------2--------------------2--------------------2--------------------2-------|
|-0--2--3--------------------3-------------------3--------------------3-----------|
|---------------------------------------------------------------------------------|

                    Em7                             D/F#

|----------2--------------2---------------2--------------2---------|
|----------2--------------2---------------3--------------3---------|
|----------0--------------0---------------2--------------2---------|
|-------2--------------2---------------0--------------0------------|
|------------------------------------------------------------------|
|----0-------------0----------------2--------------2---------------|

        C                             D

|----------0------------------2---------------------------------------------|
|----------1------------------3---------------------------------------------|
|----------0------------------2---------------------------------------------|
|--------------------------0------------------------------------------------|
|-------2-------------------------------------------------------------------|
|----3----------------------------------------------------------------------|


For Chorus and Bridge :


   Am7         C  or C       G        D

|----0-----------0---0---------2---------2----------------------------------|
|----1-----------1---1---------2---------3----------------------------------|
|----0-----------0---0---------0---------2----------------------------------|
|----2-----------2---2---------0---------0----------------------------------|
|----0-----------3---3---------2---------0----------------------------------|
|----------------3-------------3--------------------------------------------|




Verse 1:
G
Your hand fits in mine
G
Like it's made just for me
    Cadd9
But bear this in mind
Cadd9
It was meant to be
             Em
And i'm joining up the dots
              D/F#
With the freckles on your cheeks
          C              D
And it all makes sense to me

  G
I know you've never loved
       G
The crinkles by your eyes
                 Cadd9
When you smile,

You've never loved
Cadd9
Your stomach or your thighs
      Em
The dimples in your back
          D/F#
At the bottom of your spine
           C              D
But i'll love them endlessly

Chorus:
Am7                               C
     I won't let these little things
       G              D
Slip out of my mouth
           Am7
But if I do
       C
It's you
           G 
Oh it's you
               D
They add up to 
         Am7
I'm in love with you
C                             G
   And all these little things

Verse 2:
G
You cant go to bed
G
Without a cup of tea
       Cadd9
And maybe that's the reason
Cadd9
That you talk in your sleep
       Em
And all those conversation
            D/F#
Are the secrets that I keep
                C              D
Though it makes no sense to me
G
I know you've never loved the sound of your voice on tape
Cadd9
You never want to know how much weigh
Em
You still have to squeeze into your jeans
      C              D
But you're perfect to me

Chorus:
Am7                             C
   I won't let these little things
       G             D
Slip out of my mouth
             Am7
But if it's true
       C
It's you
           G 
Oh it's you
               D
They add up to 
         Am7
I'm in love with you
C                            
   And all these little things

Bridge:
Am7               C
   You'll never love yourself
             G                   D
Half as much as I love you
Am7              C                            G
  You'll never treat yourself right darlin'
                        D
But I want you to
Am7              C
    If I let you kno-o-o-w
      G          D
I'm here for you
Am7                 C                   G           D
    Maybe you'll love yourself like I love you
Oh..

Am7                                       C
   And I've just let these little things
       G             D
Slip out of my mouth
                Am7
'cause it's you
           C
Oh it's you
        G
It's you
               D
They add up to
                Am7
And i'm in love you
C                           
   And all these little things

Chorus:
Am7                             C
   I won't let these little things
       G              D
Slip out of my mouth
               Am7
But if it's true
       C
It's you
       G 
it's you
               D
They add up to 
          Am7
I'm in love with you
C                            G
   And all these little things .
            
Submit corrections

comments powered by Disqus
↑ Back to top | One Direction Tabs for Little Things. Lyrics for acoustic guitar and electric guitar. 1 Tablatures and chords are parodies/interpretations of the original songs. You may use it for private study, scholarship, research or language learning purposes only