» » »

Puny Humans Tabs (ver.1)

Artists:  A B C D E F G H I J K L M N O P Q R S T U V W X Y Z # 

Puny Humans Tabs (ver.1)

Omar A Rodriguez-lopez
Rating:
0/5 (0 votes)

Hard to play? Try these video lessons and learn fast.
                -------------------------------------------------------------------------------
            Puny Humans - El Grupo Nuevo de Omar Rodriguez-Lopez
-------------------------------------------------------------------------------

Tuning: Standard


Opening Riff
e|-------------------------------------------------------------|
B|-------------------------------------------------------------|
G|--------------5---------------6---------5--------------------|
D|--5----3-------------3------3----5-8--------3----------------|
A|-----5------8------4------5-----------8---4--------3-----3---|
E|-------------------------------------------------4---3-4---4-|

I won't get tourettes if you don't get tourettes...
e|---333-----------------------|
B|---555--4h5p4p0--------------|
G|---444---------4h5p4p0-3-0-0-|
D|-----------------------------|
A|-----------------------------|
E|-----------------------------|

Slow Part...  Mess around with this...
e|--------0----------|
B|----2-0---0-1-2----|
G|--0-------------0--|
D|-------------------|
A|-------------------|
E|-------------------|

Chorus...
e|--8-5-7----------7---8-5------|
B|--------8-5-7-8---------------|
G|------------------------------|
D|------------------------------|
A|------------------------------|
E|------------------------------|


| /  slide up
| \  slide down
| h  hammer-on
| p  pull-off
| ~  vibrato
| +  harmonic
| x  Mute note

The next song on the album "Shake is for 8th Graders" i basically the same song... the 
same riffs as tabbed here, just in a slightly different order, so basically you get two 
in one here =]

===============================================================================
            
Hard to play? Try these video lessons and learn fast. | Correct




comments powered by Disqus
↑ Back to top | Tablatures and chords are parodies/interpretations of the original songs. You may use it for private study, scholarship, research or language learning purposes only