» » »

A Little Pain Tabs (ver.2)

Artists:  A B C D E F G H I J K L M N O P Q R S T U V W X Y Z # 

A Little Pain Tabs (ver.2)

Olivia Lufkin
Rating:
5/5 (2 votes)

Hard to play? Try these video lessons and learn fast.
                it translated.

Intro
e|---0-------0-------0-------0---|
b|-----3-------3-------3-------3-|
g|--0-0-----0-0-----0-0-----0-0--|
d|-1-------x-------x-------x-----|
a|x-------3-------x-------x------|
E|x--------------3-------2-------|

Verse
e|---0-------0-------0-------0---|
b|-----3-------3-------3-------3-|
g|--0-0-----0-0-----0-0-----0-0--|
d|-1-------x-------x-------x-----|
a|x-------3-------x-------x------|
E|x--------------3-------2-------|

e|--------------------|
b|--------------------|
g|7-------------------|
d|5--5--7--8--9--6--7-|
a|---3--5--6--7--4--5-|
E|--------------------|

Chorus
e|-----------|
b|-----------|
g|-----------|
d|5-----7--5-| {just keep repeating
a|3--5--5--7-|  until words end}
E|---3-------|

e|-----------|
b|-----------|
g|-----------|
d|5-----7--5-|
a|3--5--5--3-|
E|---3-------|

Verse
e|---0-------0-------0-------0---|
b|-----3-------3-------3-------3-|
g|--0-0-----0-0-----0-0-----0-0--|
d|-1-------x-------x-------x-----|
a|x-------3-------x-------x------|
E|x--------------3-------2-------|

e|--------------------|
b|--------------------|
g|7-------------------|
d|5--5--7--8--9--5--7-|
a|---3--5--6--7--3--5-|
E|--------------------|

Chorus
e|-----------|
b|-----------|
g|-----------|
d|5-----7--9-| {just keep repeating
a|3--5--5--7-|  until words end}
E|---3-------|

e|-----|
b|-----|
g|-----|
d|5--7-|
a|3--5-|
E|-----|

Fill?/Bridge?
e|-----------------------------|
b|-----------------------------|
g|-----------------------------|
d|5-----5-----5-----5--4--5----|
a|3--5--3--5--3--5--3--2--3--5-|
E|---3-----3-----3-----------3-|

Chorus
e|-----------|
b|-----------|
g|-----------|
d|5-----7--9-| {just keep repeating
a|3--5--5--7-|  until words end}
E|---3-------|

e|-----|
b|-----|
g|-----|
d|5--7-|
a|3--5-|
E|-----|

Ending
e|-----------|
b|-----------|
g|-----------|
d|5-----7--9-| {Repeat then:}
a|3--5--5--7-|
E|---3-------|

e|-----------|
b|-----------|
g|-----------|
d|5-----7--5-|
a|3--5--5--3-|
E|---3-------|

Note: This is my first time tabbing or figuring out how to play without someone teaching 
to me or having a tab in front of me, so there could, obviously, be a lot of mistakes 
stuff, so I just want to say now, sorry XD
            
Hard to play? Try these video lessons and learn fast. | Correct




comments powered by Disqus
↑ Back to top | Tablatures and chords are parodies/interpretations of the original songs. You may use it for private study, scholarship, research or language learning purposes only