>
 >
The Greatest Story Ever Told 1

The Greatest Story Ever Told 1 Guitar Tabs

Oliver James - The Greatest Story Ever Told 1 chords, tabs, tablatures, lyrics

Guitar lessons | Add/correct | Request | Top 50 tabs Artists:  A B C D E F G H I J K L M N O P Q R S T U V W X Y Z 0-9

The Greatest Story Ever Told 1 Guitar Tabs – Oliver James

CD, Sheet music, Poster

Do you like The Greatest Story Ever Told 1? Share with your friends now
TabsTabs v2Tabs v3Ukulele
Insturment: Acoustic Guitar
Tuning: Standard- high to low- (eBGDAE)
This is the whole song, every note is is tabbed here, i didnt like the tabs that said
basically repeating itself because basically is not what is actually been played! so here
tab!

Intro: (2x)
e|-3---------------------3~--------|
B|-3---3---3-----------------------|
G|-----0---0---0-------0-----------|
D|---0---0---0-----0h2-------------|
A|---------2-----3-----------------|
E|-3-------------------------------|

Verse: "Thank you for..."
e|-3-------------------------------3-----------------------3~----------------|
B|-3---3---3---------------3~------3---3---3---------------3~----------------|
G|-----0---0---0---------0------0------0---0---0---------0------0------------|
D|---0---0---0---0---0h2------2------0---0---0---0---0h2------2--------------|
A|---------2-------3-----------------------2-------3-------------------------|
E|-3-------------------------------3-----------------------------------------|

Verse Cont'd: "Of all the hopes..."
e|-------------------------3~--------------2~--------------------------------|
B|-1-----1-3-------3---------------------3------3----------------------------|
G|-----0-------0-------0-----------0---2-------------------------------------|
D|---2-------0---0---2---2-----0h2---0--------0---0--------------------------|
A|-0-------2-------3---------------------------------------------------------|
E|---------------------------------------------------------------------------|

Verse Cont'd: "If I could have one dance..."
e|-3--------------------------------3----------------------------3-----------|
B|-3-------3---------------3~-------3-------3---------------3~---------------|
G|-----0---0---0---------0------0-------0---0---0---------0----0---0---------|
D|---0---0---0---0---0h2----------2---0---0---0---0---0h2--------------------|
A|---------2-------3----------3-------------2-------3------------------------|
E|-3--------------------------------3----------------------------------------|

Verse Cont'd:Tonight it's you and I...
e|---------------------------------------3------2~--3p2----------------------|
B|-1-----1-3-------3-------2-------3---3---3----3~------3--------------------|
G|-----0-------0-------0-------2-----2-------2--2~--------2-0----------------|
D|---2-------0---0---2---2---2---2-0------------0~---------------------------|
A|-0-------2-------3-------0-------------------------------------------------|
E|---------------------------------------------------------------------------|

Chorus: "If I lived a thousand..."
e|-3-----------------------3~-------3-----------------------3~---------------|
B|-3-------3-------3------------3---3-------3-------3------------3-----------|
G|-----0---0---0---0-----0--------0-----0---0---0---0-----0------0-----------|
D|---0---0---0---0---0h2------2-------0---0---0---0---0h2------2---2---------|
A|---------2-------3------------------------2-------3------------------------|
E|-3--------------------------------3----------------------------------------|

Chorus Cont'd: "But if destiny decided..."
e|-3-----------------------------3~------------------------------------------|
B|-3-------3---------------3----------3--------------------------------------|
G|-----0-------2---------0-----0----------0----------------------------------|
D|---0---0---0---0-----2-----2----------2------------------------------------|
A|-------------------2-----3--------3----------------------------------------|
E|-3-------2-------0---------------------------------------------------------|

Chorus Cont'd: "Then the world would never know..."
e|--------3~---------------3~-----------3---3-------3-------3----------------|
B|3------------------3----------3---1-----------1~--3------------------------|
G|------0----------0-0---0------0-------------2---------0-----0---0----------|
D|--0h2------2-0h2-----0------0---0---2---2-0---------0---0-----0------------|
A|3------------------2--------------0----------------------------------------|
E|--------------------------------------------------3------------------------|
I don't here your music
e|-3-------------------------------3-----------------------3~----------------|
B|-3---3---3---------------3~------3---3---3---------------3~----------------|
G|-----0---0---0---------0------0------0---0---0---------0------0------------|
D|---0---0---0---0---0h2------2------0---0---0---0---0h2------2--------------|
A|---------2-------3-----------------------2-------3-------------------------|
E|-3-------------------------------3-----------------------------------------|

Verse Cont'd: "but I feel the rythem of your body
e|-------------------------3~--------------2~--------------------------------|
B|-1-----1-3-------3---------------------3------3----------------------------|
G|-----0-------0-------0-----------0---2-------------------------------------|
D|---2-------0---0---2---2-----0h2---0--------0---0--------------------------|
A|-0-------2-------3---------------------------------------------------------|
E|---------------------------------------------------------------------------|

Verse Cont'd: "I'ts a way we touch"
e|-3--------------------------------3----------------------------3-----------|
B|-3-------3---------------3~-------3-------3---------------3~---------------|
G|-----0---0---0---------0------0-------0---0---0---------0----0---0---------|
D|---0---0---0---0---0h2----------2---0---0---0---0---0h2--------------------|
A|---------2-------3----------3-------------2-------3------------------------|
E|-3--------------------------------3----------------------------------------|

Verse Cont'd:your kiss you pretty smile
e|---------------------------------------3------2~--3p2----------------------|
B|-1-----1-3-------3-------2-------3---3---3----3~------3--------------------|
G|-----0-------0-------0-------2-----2-------2--2~--------2-0----------------|
D|---2-------0---0---2---2---2---2-0------------0~---------------------------|
A|-0-------2-------3-------0-------------------------------------------------|
E|---------------------------------------------------------------------------|

Chorus: "If I lived a thousand..."
e|-3-----------------------3~-------3-----------------------3~---------------|
B|-3-------3-------3------------3---3-------3-------3------------3-----------|
G|-----0---0---0---0-----0--------0-----0---0---0---0-----0------0-----------|
D|---0---0---0---0---0h2------2-------0---0---0---0---0h2------2---2---------|
A|---------2-------3------------------------2-------3------------------------|
E|-3--------------------------------3----------------------------------------|

Chorus Cont'd: "But if destiny decided..."
e|-3-----------------------------3~------------------------------------------|
B|-3-------3---------------3----------3--------------------------------------|
G|-----0-------2---------0-----0----------0----------------------------------|
D|---0---0---0---0-----2-----2----------2------------------------------------|
A|-------------------2-----3--------3----------------------------------------|
E|-3-------2-------0---------------------------------------------------------|

Chorus Cont'd: "Then the world would never know..."
e|--------3~---------------3~-----------3---3-------3-------3--2--0------------|
B|3------------------3----------3---1-----------1~--3--------------------------|
G|------0----------0-0---0------0-------------2---------0----------------------|
D|--0h2------2-0h2-----0------0---0---2---2-0---------0---0--------------------|
A|3------------------2--------------0------------------------------------------|
E|--------------------------------------------------3--------------------------|


e|--------3~---------------3~-----------3---3-------3-------3----------------|
B|3------------------3----------3---1-----------1~--3------------------------|
G|------0----------0-0---0------0-------------2---------0------0---0---------|
D|--0h2------2-0h2-----0------0---0---2---2-0---------0---0------0-----------|
A|3------------------2--------------0----------------------------------------|
E|--------------tonight-----------------------------3------------------------|

Chorus: "If I lived a thousand..."
e|-3-----------------------3~-------3-----------------------3~---------------|
B|-3-------3-------3------------3---3-------3-------3------------3-----------|
G|-----0---0---0---0-----0--------0-----0---0---0---0-----0------0-----------|
D|---0---0---0---0---0h2------2-------0---0---0---0---0h2------2---2---------|
A|---------2-------3------------------------2-------3------------------------|
E|-3--------------------------------3----------------------------------------|

Chorus Cont'd: "But if destiny decided..."
e|-3-----------------------------3~------------------------------------------|
B|-3-------3---------------3----------3--------------------------------------|
G|-----0-------2---------0-----0----------0----------------------------------|
D|---0---0---0---0-----2-----2----------2------------------------------------|
A|-------------------2-----3--------3----------------------------------------|
E|-3-------2-------0---------------------------------------------------------|

Chorus Cont'd: "Then the world would never know..."
e|--------3~---------------3~-----------3---3-------3-------3--2--0----------|
B|3------------------3----------3---1-----------1~--3------------------------|
G|------0----------0-0---0------0-------------2---------0--------------------|
D|--0h2------2-0h2-----0------0---0---2---2-0---------0---0------------------|
A|3------------------2--------------0----------------------------------------|
E|--------------------------------------------------3------------------------|

e|--------3~---------------3~-----------3---3-------3-------3----------------|
B|3------------------3----------3---1-----------1~--3------------------------|
G|------0----------0-0---0------0-------------2---------0------0---0---------|
D|--0h2------2-0h2-----0------0---0---2---2-0---------0---0------0-----------|
A|3------------------2--------------0----------------------------------------|
E|--------------------------------------------------3------------------------|

did I tell you that i love you tonight...
e|----3---3------------3------------------------|
b|1-----------1~------3-------------------------|
G|----------2--------0--------------------------|
D|--2---2-0---------0---------------------------|
A|0----------------0----------------------------|
E|----------------3-----------------------------|
Just play G here but a string at a time





Comments


Popular Oliver James tabs & chords
Greatest Story Ever Told Chords
Long Time Coming Chords
Long Time Coming 1 Chords
The Greatest Story Ever Told 1 Chords
The Greatest Story Ever Told 2 Chords
Long Time Coming Tabs
The Greatest Story Ever Told Tabs
The Greatest Story Ever Told 2 Tabs
Long Time Coming Ukulele
The Greatest Story Ever Told Ukulele


Song lyrics



↑ Back to top | Tablatures and chords are parodies/interpretations of the original songs. You may use it for private study, scholarship, research or language learning purposes only
© 2014 AZChords.com Contact us | Privacy policy | DMCA | Add/correct tabs | Request tabs | Top 50 tabs