>
 >
Why I'm Here 1

Why I'm Here 1 Guitar Tabs

Oleander - Why I'm Here 1 chords, tabs, tablatures, lyrics

Guitar lessons | Add/correct | Request | Top 50 tabs Artists:  A B C D E F G H I J K L M N O P Q R S T U V W X Y Z 0-9

Why I'm Here 1 Guitar Tabs – Oleander

CD, Sheet music, Poster

Do you like Why I'm Here 1? Share with your friends now
TabsTabs v2Tabs v3

Key
P.M. = Palm Mute
~    = Let It Ring
x    = Mute

Oleander - Why I'm Here


1st Guitar (Intro) (Clean) Repeat 2x
e--------------------------------------
B--------------------------------------
G--------------------------------------
D-------7------10-------7------2-------
A-----7--7---10--10---7--7---2--2------
E----5-----8--------5------0-----------



1st Guitar (clean) Repeat 2x
e--------------------------------------
B--------------------------------------
G--------------------------------------
D-------7------10-------7------2-------
A-----7--7---10--10---7--7---2--2------
E----5-----8--------5------0-----------


2nd Guitar Repeat 2x
e--------------------------------------
B--|-------------------------------|---
G--| Havn't Figured This Part Out  |---
D--| yet if you can tab it please  |---
E--------------------------------------



1st Guitar (Clean) Repeat 4x
e--------------------------------------
B--------------------------------------
G--------------------------------------
D-------7------10-------7------2-------
A-----7--7---10--10---7--7---2--2------
E----5-----8--------5------0-----------
It's the reason for my pain 
in a season to celebrate
I don't wanna be full of hate for anybody
but it's to..


1st Guitar (Pre Chorus) (clean) Repeat 2x
e--------------------------------------
B--------------------------------------
G---------------------7-----9----------
D-------7-----10----7--7--9--9---------
A-----7--7--10--10-5-----7-------------
E----5-----8---------------------------
late 


2nd Guitar (Pre Chorus) (lil' distortion) Repeat 2x
e----------------------------------------------------------
B----------------------------------------------------------
G----------------------------------------------------------
D----7-7-7-7-10-10-10-10-12-12-12-12-14-14-14-14-----------
A----7-7-7-7-10-10-10-10-12-12-12-12-14-14-14-14-----------
E----5-5-5-5--8--8--8--8-10-10-10-10-12-12-12-12-----------
    [- - - - - - - - Palm Mute - - - - - - - - -]



1st Guitar (clean) Repeat 4x
e--------------------------------------
B--------------------------------------
G--------------------------------------
D-------7------10-------7------2-------
A-----7--7---10--10---7--7---2--2------
E----5-----8--------5------0-----------
everyone has been in my face 
telling me that im a disgrace 
showin me things that i must face
telling me that they need there...


1st Guitar (Pre Chorus) (Clean) Repeat 2x
e--------------------------------------
B--------------------------------------
G---------------------7-----9----------
D-------7-----10----7--7--9--9---------
A-----7--7--10--10-5-----7-------------
E----5-----8---------------------------
Space

2nd Guitar (Pre Chorus)(lil' Distortion) Repeat 2x
e----------------------------------------------------------
B----------------------------------------------------------
G----------------------------------------------------------
D----7-7-7-7-10-10-10-10-12-12-12-12-14-14-14-14-----------
A----7-7-7-7-10-10-10-10-12-12-12-12-14-14-14-14-----------
E----5-5-5-5--8--8--8--8-10-10-10-10-12-12-12-12-----------
    [- - - - - - - - - - P.M.- - - - - - - - - -]

1st Guitar (Chorus) (Lots Of Distortion)
e------------------------------------------------------------------------------------------
B------------------------------------------------------------------------------------------
G------------------------------------------------------------------------------------------
D----7-7-7-7-10-10-10-10---7--7--7---7---10-10-10-10-10-10-10-10-12-12-12-12-12-12-12-12---
A----7-7-7-7-10-10-10-10---7--7--7---7---10-10-10-10-10-10-10-10-12-12-12-12-12-12-12-12---
E----5-5-5-5--8--8--8--8---5--5--5---5----8--8--8--8--8--8--8--8-10-10-10-10-10-10-10-10---
                          [- P.M.-]
I can't love you anymore 
im scared of the sound of it


1st Guitar (Clean) Repeat 2x
e--------------------------------------
B--------------------------------------
G--------------------------------------
D-------7------10-------7------2-------
A-----7--7---10--10---7--7---2--2------
E----5-----8--------5------0-----------

2nd Guitar
e--------------------------------------
B--|-------------------------------|---
G--| Havn't Figured This Part Out  |---
D--| yet if you can tab it please  |---
E--------------------------------------



1st Guitar (clean) Repeat 4x
e--------------------------------------
B--------------------------------------
G--------------------------------------
D-------7------10-------7------2-------
A-----7--7---10--10---7--7---2--2------
E----5-----8--------5------0-----------
it's the reason why im down
i beatin and pushed around
hit the ceiling without a sound
everyone i know considers me a...

1st Guitar (Pre Chorus)(clean)Repeat 2x
e--------------------------------------
B--------------------------------------
G---------------------7-----9----------
D-------7-----10----7--7--9--9---------
A-----7--7--10--10-5-----7-------------
E----5-----8---------------------------
Clown

2nd Guitar (Pre Chorus) (Lil'Distortion) Repeat 2x
e----------------------------------------------------------
B----------------------------------------------------------
G----------------------------------------------------------
D----7-7-7-7-10-10-10-10-12-12-12-12-14-14-14-14-----------
A----7-7-7-7-10-10-10-10-12-12-12-12-14-14-14-14-----------
E----5-5-5-5--8--8--8--8-10-10-10-10-12-12-12-12-----------
    [- - - - - - - - Palm Mute - - - - - - - - -]



1st Guitar (Chorus) (Lots Of Distortion)
e--------------------------------------------------------------------------------------------
B--------------------------------------------------------------------------------------------
G--------------------------------------------------------------------------------------------
D----x-7-7-7-7-10-10-10-10---7--7--7---7---10-10-10-10-10-10-10-10-12-12-12-12-12-12-12-12---
A----x-7-7-7-7-10-10-10-10---7--7--7---7---10-10-10-10-10-10-10-10-12-12-12-12-12-12-12-12---
E----x-5-5-5-5--8--8--8--8---5--5--5---5----8--8--8--8--8--8--8--8-10-10-10-10-10-10-10-10---
                            [- P.M.-]
I can't love you anymore
i'm scared of the sound of it


1st Guitar (Chorus) (Lots Of Distiortion)
e-------------------------------------------------------------------
B-------------------------------------------------------------------
G-------------------------------------------------------------------
D---7--7--7---7---10-10-10-10-10-10-10-10-12-12-12-12-12-12-12-12---
A---7--7--7---7---10-10-10-10-10-10-10-10-12-12-12-12-12-12-12-12---
E---5--5--5---5----8--8--8--8--8--8--8--8-10-10-10-10-10-10-10-10---
   [- P.M.-]
Woman I just wanted more

1st Guitar (Distortion) Repeat 4x
e---------------------------------
B---------------------------------
G------------------7-7-7-9-9-9----
D---7-7-7-10-10-10-7-7-7-9-9-9----
A---7-7-7-10-10-10-5-5-5-7-7-7----
E---5-5-5--8--8--8----------------

2nd Guitar 
e--------------------------------------
B--|-------------------------------|---
G--| Havn't Figured This Solo Out  |---
D--| yet if you can tab it please  |---
E--------------------------------------

1st Guitar (Chorus) (Lots Of Distortion)
e--------------------------------------------------------------------------------------------
B--------------------------------------------------------------------------------------------
G--------------------------------------------------------------------------------------------
D-----7-7-7-7-10-10-10-10---7--7--7---7---10-10-10-10-10-10-10-10-12-12-12-12-12-12-12-12----
A-----7-7-7-7-10-10-10-10---7--7--7---7---10-10-10-10-10-10-10-10-12-12-12-12-12-12-12-12----
E-----5-5-5-5--8--8--8--8---5--5--5---5----8--8--8--8--8--8--8--8-10-10-10-10-10-10-10-10----
                           [- P.M.-]
I can't love you anymore
scared of the sound of it

e-------------------------------------------------------------------
B-------------------------------------------------------------------
G-------------------------------------------------------------------
D---7--7--7---7---10-10-10-10-10-10-10-10-12-12-12-12-12-12-12-12---
A---7--7--7---7---10-10-10-10-10-10-10-10-12-12-12-12-12-12-12-12---
E---5--5--5---5----8--8--8--8--8--8--8--8-10-10-10-10-10-10-10-10---
   [- P.M.-]
and woman i just wanted more

1st Guitar Repeat (Clean) 6x
e--------------------------------------
B--------------------------------------
G--------------------------------------
D-------7------10-------7------2-------
A-----7--7---10--10---7--7---2--2------
E----5-----8--------5------0-----------
it's the reason why i'm here

e-----------
B-----------
G-----------
D-----------
A-----------
E----5~~~~~~





Comments


Popular Oleander tabs & chords
Boys Don't Cry Chords
Champion Chords
Runaway Train Chords
Runaway Train 1 Chords
Benign Tabs
Don't Break My Fall Tabs
Lost Cause Tabs
Stupid 1 Tabs
Where Were You Then? Tabs
You'll Find Out Tabs


Song lyrics



↑ Back to top | Tablatures and chords are parodies/interpretations of the original songs. You may use it for private study, scholarship, research or language learning purposes only
© 2014 AZChords.com Contact us | Privacy policy | DMCA | Add/correct tabs | Request tabs | Top 50 tabs