>
 >
Runaway Train

Runaway Train Guitar Tabs

Oleander - Runaway Train chords, tabs, tablatures, lyrics

Guitar lessons | Add/correct | Request | Top 50 tabs Artists:  A B C D E F G H I J K L M N O P Q R S T U V W X Y Z 0-9

Runaway Train Guitar Tabs – Oleander

CD, Sheet music, Poster

Do you like Runaway Train? Share with your friends now
ChordsChords v2TabsTabs v2Ukulele

Listen for change and timing.


 / slide up

 \ side down

 h hammer on

 p pull off


Tunning: Drop C# ( Drop D then tune down 1/2 step)
D#--------------|
A#--------------|
F#--------------|
C#--------------|
G#--------------|
C#--------------|

Intro/Verse

Guitar 1
D#--------------------|
A#--------------------|
F#-6---6---7---6---7--|
C#-4---0---0---0---0--|
G#-4---0---0---0---0--|
C#-4---0---0---0---0--|
   F   C#  C#  C#  C#
Guitar 2
D#---------------------------------------------------------------------|
A#---------------------------------------------------------------------|
F#--4/6---6-6-6\4---4-4-4\2---2-2-2\1--1--1h2p1-------------4-6-6--6/9-|
C#----------------------------------------------4-4/6-6/7--------------|
G#---------------------------------------------------------------------|
C#---------------------------------------------------------------------|


F
It's a corner that you turn

                                C#
It's a lesson that you learn in time

F
It's a worry that you feel

                                   C#
Another scar that you conceal from sight

F                                   C#
Have I been away too long for me to say?

F                                    C#
Have I been away too long for things to change?


Chorus

Guitar 1
D#-------------------|
A#-------------------|
F#-7---7---6---7---7-|
C#-5---0---4---5---0-|
G#-5---0---4---5---0-|
C#-5---0---4---5---0-|
   F#  C#  F   F#  C#

F#              C#      F
   From a runaway train
                   F#             C#
Caught beneath the wheels of a runaway train

Outro

Guitar 1
D#---------------------------------------------------------|
A#---------------------------------------------------------|
F#---------------------------------------------------------|
C#---------------------------------------------------------|
G#---------------------------------------------------------|
C#-4-4-4-4-4-4-4-6-6-6-6-6-6-6-7-7-7-7-7-7-7-9-9-9-9-9-9-9-|





Comments


Popular Oleander tabs & chords
How Could I Bass Tabs
I Walk Alone Bass Tabs
Benign 1 Tabs
Down When I'm Loaded Tabs
Halo Tabs
Hands Off The Wheel Tabs
I Walk Alone Tabs
Jimmy Shaker Day Tabs
Why I'm Here Tabs
Why I'm Here 2 Tabs


Song lyrics



↑ Back to top | Tablatures and chords are parodies/interpretations of the original songs. You may use it for private study, scholarship, research or language learning purposes only
© 2014 AZChords.com Contact us | Privacy policy | DMCA | Add/correct tabs | Request tabs | Top 50 tabs