» » »

Oleander, Halo Tabs (ver.2)

Artists:  A B C D E F G H I J K L M N O P Q R S T U V W X Y Z # 

Halo Tabs (ver.2)

Oleander Tabs
 Rating:
4/5 (4 votes)
Halo lessons Tabs too difficult? Try these video lessons and learn fast
                Guitarists: Thomas Flowers & Ric Ivanisevich
Tuning: Tune all guitars down 1/2 step


Notation Legend:

PM=palm mute

{
}=arpeggio
{

{
}
{=upstroke arpeggio
}
v


This song is in the Key of G


Intro


Guitar 1 w/ clean tone, flanger, & delay

E-------------------------------------------------------|
B-------------------------------------------------------|
G---{5-----5--------5---4--4--------4---5--5--------5---|
D---}3-----------3------3--3-----3------3--3-----3------|
A---{3--3-----3---------3--3--3---------3--3--3---------|
E-------------------------------------------------------|

E----------------------------------------------------------------|
B----------------------------------------------------------------|
G---4--4--------4---5--5-----5---4--4--------4---5--5--------5---|
D---3--3-----3------3--3---------3--3-----3------3--3-----3------|
A---3--3--3---------3--3--3------3--3--3---------3--3--3---------|
E----------------------------------------------------------------|

         Riff 2
E-------|----------------------------------------------------|
B-------|----------------------------------------------------|
G---4---|----------------------------------------------------|
D---3---|---------9--7--9--7--9--7--------9--7--9--7--9--7---|
A---3---|---0--0--------------------0--0---------------------|
E-------|----------------------------------------------------|
            PM--------------------------------------------|

E----------------------------------------------------|
B----------------------------------------------------|
G---------7--5--7--5--7--5--------7--5--7--5--7--5---|
D----------------------------------------------------|
A---3--3--------------------3--3---------------------|
E----------------------------------------------------|
    PM--------------------------------------------|


Acoustic Guitar (guitar one plays Riff 2)

E-----------7------------7------------8---|
B---5---7--------5---7--------5---7-------|
G-----------------------------------------|
D-----------------------------------------|
A-----------------------------------------|
E-----------------------------------------|


Verse

Acoustic Guitar plays riff above, Guitar 1 plays Riff 2


Chorus

Acous. Guitar and Guitar 1 w/ clean tone

E---{3--3--3--3---3--3--3--3---0--0--0--0--0---0--0--0--0---|
B---}3--3--3--3---3--3--3--3---0--3--3--3--3---3--3--3--3---|
G---{0--0--0--0---0--0--0--0---0--2--2--2--2---2--2--2--2---|
D---}0--0--0--0---0--0--0--0---0--0--0--0--0---0--0--0--0---|
A---{2--2--2--2---2--2--2--2--------------------------------|
E---v3--3--3--3---3--3--3--3--------------------------------|

E---0--0--0--0---0--0--0--0---0--0--0--0---0--0--0--0---|
B---1--1--1--1---1--1--1--1---0--0--0--0---0--0--0--0---|
G---0--0--0--0---0--0--0--0---2--2--2--2---2--2--2--2---|
D---2--2--2--2---2--2--2--2---2--2--2--2---2--2--2--2---|
A---3--3--3--3---3--3--3--3---0--0--0--0---0--0--0--0---|
E-------------------------------------------------------|

E---{3--3--3--3---3--3--3--3---0--0--0--0--0---0--0--0--0---|
B---}3--3--3--3---3--3--3--3---0--3--3--3--3---3--3--3--3---|
G---{0--0--0--0---0--0--0--0---0--2--2--2--2---2--2--2--2---|
D---}0--0--0--0---0--0--0--0---0--0--0--0--0---0--0--0--0---|
A---{2--2--2--2---2--2--2--2--------------------------------|
E---v3--3--3--3---3--3--3--3--------------------------------|

E---0--0--0--0---0--0--0--0---0--0--0--0---0--0--0--0---|
B---1--1--1--1---1--1--1--1---0--0--0--0---0--0--0--0---|
G---0--0--0--0---0--0--0--0---2--2--2--2---2--2--2--2---|
D---2--2--2--2---2--2--2--2---2--2--2--2---2--2--2--2---|
A---3--3--3--3---3--3--3--3---0--0--0--0---0--0--0--0---|
E-------------------------------------------------------|

E---{3--3--3--3---3--3--3--3---0--0--0--0--0---0--0--0--0---|
B---}3--3--3--3---3--3--3--3---0--3--3--3--3---3--3--3--3---|
G---{0--0--0--0---0--0--0--0---0--2--2--2--2---2--2--2--2---|
D---}0--0--0--0---0--0--0--0---0--0--0--0--0---0--0--0--0---|
A---{2--2--2--2---2--2--2--2--------------------------------|
E---v3--3--3--3---3--3--3--3--------------------------------|

E---0--0--0--0---0--0--0--0---0--0--0--0---0--0--0--0---|
B---1--1--1--1---1--1--1--1---1--1--1--1---1--1--1--1---|
G---0--0--0--0---0--0--0--0---0--0--0--0---0--0--0--0---|
D---2--2--2--2---2--2--2--2---2--2--2--2---2--2--2--2---|
A---3--3--3--3---3--3--3--3---3--3--3--3---3--3--3--3---|
E-------------------------------------------------------|

E---0--0--0--0---0--0--0--0---0--0--0--0---0--0--0--0---|
B---0--0--0--0---0--0--0--0---1--1--1--1---1--1--1--1---|
G---0--0--0--0---0--0--0--0---0--0--0--0---0--0--0--0---|
D---2--2--2--2---2--2--2--2---2--2--2--2---2--2--2--2---|
A---3--3--3--3---3--3--3--3---3--3--3--3---3--3--3--3---|
E-------------------------------------------------------|

E---0--0--0--0---0--0--0--0---0--0--0--0---0--0--0--0---|
B---0--0--0--0---0--0--0--0---1--1--1--1---1--1--1--1---|
G---0--0--0--0---0--0--0--0---0--0--0--0---0--0--0--0---|
D---2--2--2--2---2--2--2--2---2--2--2--2---2--2--2--2---|
A---3--3--3--3---3--3--3--3---3--3--3--3---3--3--3--3---|
E-------------------------------------------------------|


Interlude

E---0--0--0--0---0--0--0--0---0--0--0--0---0--0--0--0---|
B---1--1--1--1---1--1--1--1---3--3--3--3---3--3--3--3---|
G---0--0--0--0---0--0--0--0---2--2--2--2---2--2--2--2---|
D---2--2--2--2---2--2--2--2---0--0--0--0---0--0--0--0---|
A---3--3--3--3---3--3--3--3-----------------------------|
E-------------------------------------------------------|

E---0--0--0--0---0--0--0--0---0--0--0--0---0--0--0--0---|
B---1--1--1--1---1--1--1--1---1--1--1--1---1--1--1--1---|
G---0--0--0--0---0--0--0--0---0--0--0--0---0--0--0--0---|
D---2--2--2--2---2--2--2--2---2--2--2--2---2--2--2--2---|
A---3--3--3--3---3--3--3--3---3--3--3--3---3--3--3--3---|
E-------------------------------------------------------|

E---0--0--0--0---0--0--0--0---0--0--0--0---0--0--0--0---|
B---1--1--1--1---1--1--1--1---3--3--3--3---3--3--3--3---|
G---0--0--0--0---0--0--0--0---2--2--2--2---2--2--2--2---|
D---2--2--2--2---2--2--2--2---0--0--0--0---0--0--0--0---|
A---3--3--3--3---3--3--3--3-----------------------------|
E-------------------------------------------------------|

E---0--0--0--0---0--0--0--0---0--0--0--0---0--0--0--0---|
B---1--1--1--1---1--1--1--1---1--1--1--1---1--1--1--1---|
G---0--0--0--0---0--0--0--0---0--0--0--0---0--0--0--0---|
D---2--2--2--2---2--2--2--2---2--2--2--2---2--2--2--2---|
A---3--3--3--3---3--3--3--3---3--3--3--3---3--3--3--3---|
E-------------------------------------------------------|
            
Submit corrections

comments powered by Disqus
↑ Back to top | Oleander Tabs for Halo. Lyrics for acoustic guitar and electric guitar. Tablatures and chords are parodies/interpretations of the original songs. You may use it for private study, scholarship, research or language learning purposes only