» » »

Wagon Wheel Tabs (ver.2)

Artists:  A B C D E F G H I J K L M N O P Q R S T U V W X Y Z # 

Wagon Wheel Tabs (ver.2)

Old Crow Medicine Show
Rating:
5/5 (3 votes)

Hard to play? Try these video lessons and learn fast.
                Here is a version of the song that sounds correct if you don't have a capo.
Here are the chord progressions:
E|--5--7--2--5--|
B|--5--9--2--7--|
G|--6--9--2--7--|
D|--7--9--4--7--|
A|--7--7--4--5--|
E|--5-----2-----|

E|--5--7--5--5--|
B|--5--9--7--7--|
G|--6--9--7--7--|
D|--7--9--7--7--|
A|--7--7--5--5--|
E|--5-----------|

Here's a little extra thing if you don't have a violin around... just kinda follow these 
notes and improvise and you should get a pretty decent accompaniment out of it.  Sorry 
couldn't do better.

E|----------------------9--10--12-------------------------------------------|
B|--------7--9--10--12-------------12--10--9--7-----------------------------|
G|--7--9-----------------------------------------7--6--4--2--4--6--4--2-----|
D|--------------------------------------------------------------------------|
A|--------------------------------------------------------------------------|
E|--------------------------------------------------------------------------|

--Capnpooh
            
Hard to play? Try these video lessons and learn fast. | Correct




comments powered by Disqus
↑ Back to top | Tablatures and chords are parodies/interpretations of the original songs. You may use it for private study, scholarship, research or language learning purposes only