» » »

Old Crow Medicine Show, Down Home Girl Chords (ver.1)

Artists:  A B C D E F G H I J K L M N O P Q R S T U V W X Y Z # 

Down Home Girl Chords (ver.1)

Old Crow Medicine Show Tabs
 Rating:
4/5 (9 votes)
Down Home Girl lessons Tabs too difficult? Try these video lessons and learn fast
1
                

Intro/Main lick:

Gtr 1 (x = muted strum)
  A   x   G   x   A   x   G   x   A   x
e|----5---------------5---------------5|
B|----5---------------5---------------5|
G|----6-----4-4-------6-----4-4-------6|
D|----7-----5-5-------7-----5-5-------7|
A|----7-----5-5-------7-----5-5-------7|
E|5---5---3-------5---5---5-------5---5|...

Gtr 2
e|-------------------------------------|
B|-------------------------------------|
G|------------2-5-2-----------2-0-2----|
D|--------2/5-------------2/5----------|
A|-------------------------------------|
E|-------------------------------------|

You can play both parts at once by moving the Gtr 2 part down to the
bottom strings.

Chorus:

A (main lick repeats)      
Well I swear your perfume baby
A  
Is made out of turnip greens
A 
Every time I kiss you girl
A  
It tastes like pork and beans
D
Even though you're wearin' those
D                   G
Up-town high heels
A
I can tell from your giant step
A 
You been walkin' through the cotton fields
E             D         A   G A
Oh! You're sooooo down home  girl.

Every time you monkey child
Takes my breath away
Well every time you move like that, girl
I got to get down and pray

Girl you know that dress you're wearin'
Is made out of fiberglass
Every time you move like that, girl
I got to go to Sunday Mass

Oh! You're so down home girl

I'm gonna take you to the muddy river
And push you in
So I can watch the water roll on
Down your velvet skin
I'm gonna take you down to New Orleans
Down in Dixie land
So I can watch you do the second line
With an umbrella in your hand

Oh! You're so down home girl 
            
Submit corrections

comments powered by Disqus
↑ Back to top | Old Crow Medicine Show Chords for Down Home Girl. Lyrics for acoustic guitar and electric guitar. 1 Tablatures and chords are parodies/interpretations of the original songs. You may use it for private study, scholarship, research or language learning purposes only