» » »

The Fix Is In Tabs (ver.1)

Artists:  A B C D E F G H I J K L M N O P Q R S T U V W X Y Z # 

The Fix Is In Tabs (ver.1)

O.K. Go
Rating:
0/5 (0 votes)

Hard to play? Try these video lessons and learn fast.
                Ok Go - The Fix In:

Intro/Verse:
e|-3-3-3--3-3-3-----------------------------------|
B|-4-4-4--4-4-4-----------------------------------|
G|-5-5-5--5-5-5-----------------------------------|
D|-5-5-5--5-5-5-----------------------------------|
A|------------------------------------------------|
E|------------------------------------------------|
When we got to Boston, we knew we'd missed a turn.
No one back in traffic school had
told us there are signs that can't be learned.
Geography's too stubborn and people are too clear,
so let's go find a road-side motel with a clerk who won't tell.
-----------------------------------------------------------------------------
Verse pt.2:
e|-----------------------------|
B|-----------------------------|
G|-----------------------------|
D|--5-----5-----5--------------|
A|--5-----5-----5--------------|
E|--3-----3-----3--------------|
Days will turn into nights, nights will turn into days, weeks, seasons...
-----------------------------------------------------------------------------
Verse pt.3
e|------------------------------------------|
B|------------------------------------------|
G|-7-7-7-7-7-----------5-5-5-5-5------------|
D|-7-7-7-7-7-7-7-7-7-7-5-5-5-5-5-5-5-5-5-5--|
A|-5-5-5-5-5-7-7-7-7-7-3-3-3-3-3-5-5-5-5-5--|
E|-----------5-5-5-5-5-----------3-3-3-3-3--|
...and years.We'll stay for years.Weeks, seasons,and years.We'll stay for years.
-----------------------------------------------------------------------------
Verse 2:
e|-3-3-3--3-3-3-----------------------------------|
B|-4-4-4--4-4-4-----------------------------------|
G|-5-5-5--5-5-5-----------------------------------|
D|-5-5-5--5-5-5-----------------------------------|
A|------------------------------------------------|
E|------------------------------------------------|
Red and white for blood cells, red and white for wine.
They could be the whole damn spectrum if
we'd all just let them. Lord, it's such a crime...
-----------------------------------------------------------------------------
Pre Chorus:
e|-----------------------------------------|
B|-----------------------------------------|
G|-5-5-5-5-5-----------4-4-4-4-4-4-4-4-4-4-|
D|-5-5-5-5-5-5-5-5-5-5-4-4-4-4-4-4-4-4-4-4-|
A|-3-3-3-3-3-5-5-5-5-5-2-2-2-2-2-2-2-2-2-2-|
E|-----------3-3-3-3-3---------------------|
Working on an inch less waistband in the
strip mall wasteland outside of this town,
or clawing at the penthouse kitchen floor for just one smidgen
more,
everybody knows, everybody knows that it's in. 
-----------------------------------------------------------------------------
Chorus:
e|------------------------------------------|
B|------------------------------------------|
G|-7-7-7-7-7-----------5-5-5-5-5------------|
D|-7-7-7-7-7-7-7-7-7-7-5-5-5-5-5-5-5-5-5-5--|
A|-5-5-5-5-5-7-7-7-7-7-3-3-3-3-3-5-5-5-5-5--|
E|-----------5-5-5-5-5-----------3-3-3-3-3--|
The fix is in.The fix is in.The fix is in.The fix is in.
The fix is in.The fix is in.The fix is in.The fix is in.
-----------------------------------------------------------------------------
Solo:
e|--------------------------------------------------7-------7-9~----|
B|-9-9-9-7-7-5-5-4-4-2--2-4-5-7-5-7-9-2-4-5-4-2-4-5---2-4-5---------|
G|------------------------------------------------------------------|
D|------------------------------------------------------------------|
A|------------------------------------------------------------------|
E|------------------------------------------------------------------|
-----------------------------------------------------------------------------
Verse 3:
No Guitar
Let's go back to Boston. Forget about the turn.
Atlases and gas station attendants are none of our concern. 
-----------------------------------------------------------------------------
e|-3-3-3--3-3-3-----------------------------------|
B|-4-4-4--4-4-4-----------------------------------|
G|-5-5-5--5-5-5-----------------------------------|
D|-5-5-5--5-5-5-----------------------------------|
A|------------------------------------------------|
E|------------------------------------------------|
We'll forge a little life dear (oh dear) and double down our debts,
and I guess it stands to reason that the passing seasons will
slowly dull regrets.
-----------------------------------------------------------------------------
Pre Chorus:
e|-----------------------------------------|
B|-----------------------------------------|
G|-5-5-5-5-5-----------4-4-4-4-4-4-4-4-4-4-|
D|-5-5-5-5-5-5-5-5-5-5-4-4-4-4-4-4-4-4-4-4-|
A|-3-3-3-3-3-5-5-5-5-5-2-2-2-2-2-2-2-2-2-2-|
E|-----------3-3-3-3-3---------------------|
Working on an inch less waistband in the strip mall wasteland
outside of this town,
or clawing at the penthouse kitchen floor for just one smidgen
more,
everybody knows, everybody knows that it's in. 
-----------------------------------------------------------------------------
Chorus:
e|------------------------------------------|
B|------------------------------------------|
G|-7-7-7-7-7-----------5-5-5-5-5------------|
D|-7-7-7-7-7-7-7-7-7-7-5-5-5-5-5-5-5-5-5-5--|
A|-5-5-5-5-5-7-7-7-7-7-3-3-3-3-3-5-5-5-5-5--|
E|-----------5-5-5-5-5-----------3-3-3-3-3--|
The fix is in.The fix is in.The fix is in.The fix is in.
The fix is in.The fix is in.The fix is in.The fix is in.
-----------------------------------------------------------------------------
Interlude:
e|-----------------------------------|
B|-----------------------------------|
G|-7-7-7-7---------5-5-5-5-----------|
D|-7-7-7-7-7-7-7-7-5-5-5-5-5-5-5-5---|
A|-5-5-5-5-7-7-7-7-3-3-3-3-5-5-5-5---|
E|---------5-5-5-5---------3-3-3-3---|
Fix is in. Oh. Fix is in. Oh.

Ends With:
e|----------|
B|----------|
G|-5--------|
D|-5--------|
A|-3--------|
E|----------|
It was one my tab, and the first song is Fix In.
Thank you for reading this tab.
            
Hard to play? Try these video lessons and learn fast. | Correct




comments powered by Disqus
↑ Back to top | Tablatures and chords are parodies/interpretations of the original songs. You may use it for private study, scholarship, research or language learning purposes only