» » »

O.K. Go, Needing Getting Tabs (ver.1)

Artists:  A B C D E F G H I J K L M N O P Q R S T U V W X Y Z # 

Needing Getting Tabs (ver.1)

O.K. Go Tabs
 Rating:
4/5 (4 votes)
Needing Getting lessons Tabs too difficult? Try these video lessons and learn fast
1
                Ok Go Needing/Getting:

Intro:I worked hard on that intro then I deserve 5 stars:
First part        Very Fast.
e|--/10--9--10-13-5-7-----------------------------------------|
B|--/12--10-12-14-7-9-----------------------------------------|2x
G|------------------------------------------------------------|
D|------------------------------------------------------------|
A|------------------------------------------------------------|
E|------------------------------------------------------------|


Verse:
     C        G       Am     F
e|--------------------------------------------|
B|--------------------------------------------|
G|-5-5-5-5------------------------------------|3x
D|-5-5-5-5-5-5-5-5-7-7-7-7-3-3-3-3------------| 
A|-3-3-3-3-5-5-5-5-7-7-7-7-3-3-3-3------------|
E|---------3-3-3-3-5-5-5-5-1-1-1-3------------|

[intro]
This second part of the intro is played only the second time in the second intro:

[First part]1x 
e|-14--9---9---13--5--7---------------------------------------|
B|-15--10--11--14--7--9---------------------------------------|
G|------------------------------------------------------------|1x
D|------------------------------------------------------------|
A|------------------------------------------------------------|
E|------------------------------------------------------------|

Verse 2: The second verse is played as the first

[intro]First part 1x second part 1x

Final:
e|--/10--9--10-13-5-7-----------------------------------------|
B|--/12--10-12-14-7-9-----------------------------------------|1x
G|------------------------------------------------------------|
D|------------------------------------------------------------|
A|------------------------------------------------------------|
E|------------------------------------------------------------|

e|-14--9---9---13--5--7---------------------------------------|
B|-15--10--11--14--7--9---------------------------------------|
G|------------------------------------------------------------|1x
D|------------------------------------------------------------|
A|------------------------------------------------------------|
E|------------------------------------------------------------|

e|--/10--9--10-13-5-7-----------------------------------------|
B|--/12--10-12-14-7-9-----------------------------------------|1x
G|------------------------------------------------------------|
D|------------------------------------------------------------|
A|------------------------------------------------------------|
E|------------------------------------------------------------|


e|-14--9---9---13--5--7--11b-11b-10b-10-10-10-10-10-10--------|
B|-15--10--11--14--7--9---------------------------------------|
G|------------------------------------------------------------|1x
D|------------------------------------------------------------|
A|------------------------------------------------------------|
E|------------------------------------------------------------|

The final solo I improvise like this:

e|-----------------------------------------|
B|-----------------------------------------|
G|-------------7b--------------------------|
D|---7-4---7-4-----------------------------|
A|-5-----5---------------------------------|
E|-----------------------------------------|

I assume you have never heard this song until the end but until I heard it is that soil.

Thanks for read this tab.
            
Submit corrections

comments powered by Disqus
↑ Back to top | O.K. Go Tabs for Needing Getting. Lyrics for acoustic guitar and electric guitar. 1 Tablatures and chords are parodies/interpretations of the original songs. You may use it for private study, scholarship, research or language learning purposes only