» » »

O.K. Go, Let It Rain Tabs (ver.1)

Artists:  A B C D E F G H I J K L M N O P Q R S T U V W X Y Z # 

Let It Rain Tabs (ver.1)

O.K. Go Tabs
 Rating:
4/5 (4 votes)
Let It Rain lessons Tabs too difficult? Try these video lessons and learn fast
                Ok Go - Let It Rain

The verse/intro can be a bit tricky because its in 7/8 so just listen to the track to 
the timing. This tab covers all the parts I could hear but if anyone has any 
just message me.

Intro:

e---------------------------------------------|
B----1-----1--------1-1------0-0--------1-1---|
G----0-----0--------2-2------1-1--------2-2---|
D--2---2-2----2-2-2-2-2------2-2--------3-3---|	x2
A--3---3-3----0-0-0------2-2-----2--3-3-----3-|
E------------------------0-0-----0--1-1-----1-|

After 1st Time Riff 1 comes in

e---------------------------------------|
B---------------------------------------|
G-55-44----44-22----22-00---------------|
D-------22-------22-------22-00-0h2-----|
A-----------------------------------3-0-|
E---------------------------------------|

e---------------------------------------|
B---------------------------------------|
G-55-44----44-22----22-00---------------|
D-------22-------22-------22-00-0h2-----|
A-----------------------------------3---|
E---------------------------------------|


Verse 1: (Super Automatic Pilot)

e---------------------------------------------|
B----1-----1--------1-1------0-0--------1-1---|
G----0-----0--------2-2------1-1--------2-2---|
D--2---2-2----2-2-2-2-2------2-2--------3-3---|	x2
A--3---3-3----0-0-0------2-2-----2--3-3-----3-|
E------------------------0-0-----0--1-1-----1-|

Pre-Chorus: (Did you come here to dance)

e---------------------------------------------|
B----1-----1--------1-1------0-0--------1-1---|
G----0-----0--------2-2------0-0--------2-2---|
D--2---2-2----2-2-2-2-2------2-2--------3-3---|	x1
A--3---3-3----0-0-0------2-2-----2--3-3-----3-|
E------------------------0-0-----0--1-1-----1-|


Chorus: (Let It Rain, Let It Pour)

Single Strums First Time

e--0----0----0----1----|
B--1----1----0----1----|
G--0----2----1----2----|
D--2----2----2----3----|
A--3----0----2----3----|
E------------0----1----|


(Hallelujah)

e--0------0------1-------------|
B--1------0------1-------------|
G--0------1------2-------------|
D--2-(x6)-2-(x6)-3-(x6)-6------|
A--3------2------3------6-(x6)-|
E---------0------1------4------|

e--0------0------1------3------4------|
B--1------0------1------3------4------|
G--0------1------2------4------5------|
D--2-(x6)-2-(x6)-3-(x6)-5-(x6)-6-(x6)-|
A--3------2------3------5------6------|
E---------0------1------3------4------|

with Riff 2

e--8-------------10----------|
B--11b13--(x5)---13b15--(x5)-|	x3

e--8------------|
B--11b13--(x5)--|


Verse 2: (Cruise control distressed her)

e---------------------------------------------|
B----1-----1--------1-1------0-0--------1-1---|
G----0-----0--------2-2------0-0--------2-2---|
D--2---2-2----2-2-2-2-2------2-2--------3-3---|	x2
A--3---3-3----0-0-0------2-2-----2--3-3-----3-|
E------------------------0-0-----0--1-1-----1-|


Pre-Chorus 2: (Did you come here to dance)

e---------------------------------------------|
B----1-----1--------1-1------0-0--------1-1---|
G----0-----0--------2-2------0-0--------2-2---|
D--2---2-2----2-2-2-2-2------2-2--------3-3---|	x2
A--3---3-3----0-0-0------2-2-----2--3-3-----3-|
E------------------------0-0-----0--1-1-----1-|

With Riff 1

e---------------------------------------|
B---------------------------------------|
G-55-44----44-22----22-00---------------|
D-------22-------22-------22-00-0h2-----|
A-----------------------------------3-0-|
E---------------------------------------|

e---------------------------------------|
B---------------------------------------|
G-55-44----44-22----22-00---------------|
D-------22-------22-------22-00-0h2-----|
A-----------------------------------3---|
E---------------------------------------|

Chorus 2: (No vocals on first line time then Let it rain, let it pour)

Single Strums

e--0----0----0----1----|
B--1----1----0----1----|
G--0----2----1----2----|
D--2----2----2----3----|	x2
A--3----0----2----3----|
E------------0----1----|


(Hallelujah)

e--0------0------1-------------|
B--1------0------1-------------|
G--0------1------2-------------|
D--2-(x6)-2-(x6)-3-(x6)-6------|
A--3------2------3------6-(x6)-|
E---------0------1------4------|

e--0------0------1------3-------|
B--1------0------1------3-------|
G--0------1------2------4-------|
D--2-(x6)-2-(x6)-3-(x6)-5-(x24--|
A--3------2------3------5-------|
E---------0------1------3-------|

with Riff 2

e--8-------------10----------|
B--11b13--(x5)---13b15--(x5)-|	x3

e--8-------------------------|
B--11b13--(x5)---------------|

e--------------|
B--6-----------|
G--8b10---(x5)-|

Verse 3: Same as Pre-Chorus 2

Outro:

e--0------0------1-------------|
B--1------0------1-------------|
G--0------1------2-------------|
D--2-(x6)-2-(x6)-3-(x6)-6------|	x3
A--3------2------3------6-(x6)-|
E---------0------1------4------|

e--0------0------1------4------|
B--1------0------1------4------|
G--0------1------2------5------|
D--2-(x6)-2-(x6)-3-(x6)-6------|
A--3------2------3------6-(x1)-|
E---------0------1------4------|

with Riff 3

e-------------------------------------|
B-------------------------------------|
G-55-44----55-22----22-00-22-11-22-44-|
D-------22-------22-------------------|	x2
A-------------------------------------|
E-------------------------------------|

e--------------------|
B--------------------|
G-55-44-55-/77-55-44-|	x3
D--------------------|

e--------------------|
B--------------------|
G-55-44-55-/77-55--4-|
D--------------------|

Then open chords at end

e--0----0----0----0----1--|
B--1----1----1----0----1--|
G--2----0----2----1----2--|
D--2----2----2----2----3--|
A--0----3----0----2----3--|
E-----------------0----1--|
            
Submit corrections

comments powered by Disqus
↑ Back to top | O.K. Go Tabs for Let It Rain. Lyrics for acoustic guitar and electric guitar. Tablatures and chords are parodies/interpretations of the original songs. You may use it for private study, scholarship, research or language learning purposes only