» » »

Let It Rain Bass tabs (ver.1)

Artists:  A B C D E F G H I J K L M N O P Q R S T U V W X Y Z # 

Let It Rain Bass tabs (ver.1)

O.K. Go
Rating:
0/5 (0 votes)

Hard to play? Try these video lessons and learn fast.
                Ok Go - Let it Rain

This song is pretty easy to play but if you happen to notice, the beat of the verse is 
odd.
While most of the song is in 3/4 time, the first measure of the verse line is in 4/4 
 Which is
why, at the beginning of the song, you rest for 13 beats instead of 12 and why you play 
C for 8
eighth notes and the A, E and F all only 6 each.  I hope that's not too confusing for everyone.


Rest 13 beats

Verse x5
G|-----------------------------------------------------|
D|-----------------------------------------------------|
A|-----------------------------------------------------|
E|-8-8-8-8-8-8-8-8-5-5-5-5-5-5-0-0-0-0-0-0-1-1-1-1-1-1-|

Rest 12 beats

Chorus x2
G|-------------------------------------------------|
D|-------------------------------------------------|
A|-------------------------------------------------|
E|-8-8-8-8-8-8-0-0-0-0-0-0-1-1-1-1-1-1-3-3-3-3-3-3-|

1st Ending
G|-------------|
D|-------------|
A|-------------|
E|-4-4-4-4-4-4-|

verse x4
Rest 24 beats
Chorus x2

2nd Ending
G|-------------------------------------------|
D|-------------------------------------------|
A|-------------------------------------------|
E|-3-3-3-3-3-3-3-3-3-3-3-3-15-15-15-15-15-15-|

Verse x2
Chorus x3

3rd Ending
G|-----------------------------------------|
D|-----------------------------------------|
A|-----------------------------------------|
E|-8-8-8-8-8-8-0-0-0-0-0-0-1-1-1-1-1-1-3-5-|
            
Hard to play? Try these video lessons and learn fast. | Correct




comments powered by Disqus
↑ Back to top | Tablatures and chords are parodies/interpretations of the original songs. You may use it for private study, scholarship, research or language learning purposes only