» » »

O.K. Go, All Is Not Lost Tabs (ver.1)

Artists:  A B C D E F G H I J K L M N O P Q R S T U V W X Y Z # 

All Is Not Lost Tabs (ver.1)

O.K. Go Tabs
 Rating:
4/5 (4 votes)
All Is Not Lost lessons Tabs too difficult? Try these video lessons and learn fast
1
                Tuning: Standard [E A D G B e]

Verse

e|--------------|---------------------------------------|
B|--------------|---------------------------------------|
G|--------------|---------------------------------------|
D|--9-9-9-4-4-5-|--5-5-5-5-5-5-5-5---7-7-7-9-9-4-4-5----|
A|--9-9-9-4-4-5-|--5-5-5-5-5-5-5-5---7-7-7-9-9-4-4-5----|
E|--7-7-7-2-2-3-|--3-3-3-3-3-3-3-3---5-5-5-7-7-2-2-3----|



e|-------------------------------------------------------------------------|
B|-------------------------------------------------------------------------|
G|-------------------------------------------------------------------------|
D|--5-5-5-5-5-5-5-5---7-7-7-9-9-4-4-5---5-5-5-5-5-5-5-5---7-7-7-9-9-4-4-5--|
A|--5-5-5-5-5-5-5-5---7-7-7-9-9-4-4-5---5-5-5-5-5-5-5-5---7-7-7-9-9-4-4-5--|
E|--3-3-3-3-3-3-3-3---5-5-5-7-7-2-2-3---3-3-3-3-3-3-3-3---5-5-5-7-7-2-2-3--|



e|--------------------------------------------|
B|--------------------------------------------|
G|--------------------------------------------|
D|--5-5-5-5-5-5-5-5---7-7-7-7-7-7-7-7---------|
A|--5-5-5-5-5-5-5-5---7-7-7-7-7-7-7-7---------|
E|--3-3-3-3-3-3-3-3---5-5-5-5-5-5-5-5---------|


Chorus

e|-----------------------------------------------------------------------|
B|-----------------------------------------------------------------------|
G|--7-7-7-7-7-7-7-7------------------------------------------------------|
D|--7-7-7-7-7-7-7-7--5-5-5-5-5-5-5-5--7-7-7-7-7-7-7-7--5-5-5-5-5-5-5-5---|
A|--5-5-5-5-5-5-5-5--5-5-5-5-5-5-5-5--7-7-7-7-7-7-7-7--5-5-5-5-5-5-5-5---|
E|-------------------3-3-3-3-3-3-3-3--5-5-5-5-5-5-5-5--3-3-3-3-3-3-3-3---| 

e|-----------------------------------------------------------------------|
B|-----------------------------------------------------------------------|
G|--7-7-7-7-7-7-7-7------------------------------------------------------|
D|--7-7-7-7-7-7-7-7--5-5-5-5-5-5-5-5--7-7-7-7-7-7-7-7--5-5-5-5-5-5-5-5---|
A|--5-5-5-5-5-5-5-5--5-5-5-5-5-5-5-5--7-7-7-7-7-7-7-7--5-5-5-5-5-5-5-5---|
E|-------------------3-3-3-3-3-3-3-3--5-5-5-5-5-5-5-5--3-3-3-3-3-3-3-3---|

e|-----------------------|
B|-----------------------|
G|-----------------------|
D|--5-5-5-9-9-4-4-5------|
A|--5-5-5-9-9-4-4-5------|
E|--3-3-3-7-7-2-2-3------|

Verse 2

e|------------------------------------------------------------------------|
B|------------------------------------------------------------------------|
G|------------------------------------------------------------------------|
D|--5-5-5-5-5-5-5-5--7-7-7-9-9-4-4-5--5-5-5-5-5-5-5-5--7-7-7-9-9-4-4-5----|
A|--5-5-5-5-5-5-5-5--7-7-7-9-9-4-4-5--5-5-5-5-5-5-5-5--7-7-7-9-9-4-4-5----|
E|--3-3-3-3-3-3-3-3--5-5-5-7-7-2-2-3--3-3-3-3-3-3-3-3--5-5-5-7-7-2-2-3----|

e|------------------------------------------------------------------------|
B|------------------------------------------------------------------------|
G|------------------------------------------------------------------------|
D|--5-5-5-5-5-5-5-5--7-7-7-9-9-4-4-5--5-5-5-5-5-5-5-5--7-7-7-9-9-4-4-5----|
A|--5-5-5-5-5-5-5-5--7-7-7-9-9-4-4-5--5-5-5-5-5-5-5-5--7-7-7-9-9-4-4-5----|
E|--3-3-3-3-3-3-3-3--5-5-5-7-7-2-2-3--3-3-3-3-3-3-3-3--5-5-5-7-7-2-2-3----|

e|-------------------------------------------------------|
B|-------------------------------------------------------|
G|-------------------------------------------------------|
D|--5-5-5-5-5-5-5-5--7-7-7-7-7-7-7-7--7-7-7-9-9-4-4-5----|
A|--5-5-5-5-5-5-5-5--7-7-7-7-7-7-7-7--7-7-7-9-9-4-4-5----|
E|--3-3-3-3-3-3-3-3--5-5-5-5-5-5-5-5--5-5-5-7-7-2-2-3----|


Verse 3

e|------------------------------------------------------------------------|
B|------------------------------------------------------------------------|
G|------------------------------------------------------------------------|
D|--5-5-5-5-5-5-5-5--7-7-7-9-9-4-4-5--5-5-5-5-5-5-5-5--7-7-7-9-9-4-4-5----|
A|--5-5-5-5-5-5-5-5--7-7-7-9-9-4-4-5--5-5-5-5-5-5-5-5--7-7-7-9-9-4-4-5----|
E|--3-3-3-3-3-3-3-3--5-5-5-7-7-2-2-3--3-3-3-3-3-3-3-3--5-5-5-7-7-2-2-3----|

e|------------------------------------------------------------------------|
B|------------------------------------------------------------------------|
G|------------------------------------------------------------------------|
D|--5-5-5-5-5-5-5-5--7-7-7-9-9-4-4-5--5-5-5-5-5-5-5-5--7-7-7-7-7-7-7-7----|
A|--5-5-5-5-5-5-5-5--7-7-7-9-9-4-4-5--5-5-5-5-5-5-5-5--7-7-7-7-7-7-7-7----|
E|--3-3-3-3-3-3-3-3--5-5-5-7-7-2-2-3--3-3-3-3-3-3-3-3--5-5-5-5-5-5-5-5----|


Chorus

e|-----------------------------------------------------------------------|
B|-----------------------------------------------------------------------|
G|--7-7-7-7-7-7-7-7------------------------------------------------------|
D|--7-7-7-7-7-7-7-7--5-5-5-5-5-5-5-5--7-7-7-7-7-7-7-7--5-5-5-5-5-5-5-5---|
A|--5-5-5-5-5-5-5-5--5-5-5-5-5-5-5-5--7-7-7-7-7-7-7-7--5-5-5-5-5-5-5-5---|
E|-------------------3-3-3-3-3-3-3-3--5-5-5-5-5-5-5-5--3-3-3-3-3-3-3-3---| 

e|-----------------------------------------------------------------------|
B|-----------------------------------------------------------------------|
G|--7-7-7-7-7-7-7-7------------------------------------------------------|
D|--7-7-7-7-7-7-7-7--5-5-5-5-5-5-5-5--7-7-7-7-7-7-7-7--5-5-5-5-5-5-5-5---|
A|--5-5-5-5-5-5-5-5--5-5-5-5-5-5-5-5--7-7-7-7-7-7-7-7--5-5-5-5-5-5-5-5---|
E|-------------------3-3-3-3-3-3-3-3--5-5-5-5-5-5-5-5--3-3-3-3-3-3-3-3---|

e|-----------------------|
B|-----------------------|
G|-----------------------|
D|--5-5-5-9-9-4-4-5------|
A|--5-5-5-9-9-4-4-5------|
E|--3-3-3-7-7-2-2-3------|


Bridge

e|--------------------------------------------------------------------------|
B|--------------------------------------------------------------------------|
G|--------------------------------------------------------------------------|
D|--9-9-9-9-9-9-9-9--1010101010101010-9-9-9-9-9-9-9-9--1010101012-12-12-12--|
A|--9-9-9-9-9-9-9-9--1010101010101010-9-9-9-9-9-9-9-9--1010101012-12-12-12--|
E|--7-7-7-7-7-7-7-7--8-8-8-8-8-8-8-8--7-7-7-7-7-7-7-7--8-8-8-8-10-10-10-10--|

e|--------------------------------------------------------------------------|
B|--------------------------------------------------------------------------|
G|--------------------------------------------------------------------------|
D|--9-9-9-9-9-9-9-9--1010101010101010-5-5-5-5-5-5-5-5--5-5-5-5-5-5-5-5------|
A|--9-9-9-9-9-9-9-9--1010101010101010-5-5-5-5-5-5-5-5--5-5-5-5-5-5-5-5------|
E|--7-7-7-7-7-7-7-7--8-8-8-8-8-8-8-8--3-3-3-3-3-3-3-3--3-3-3-3-3-3-3-3------|

e|-------------------------------------|
B|-------------------------------------|
G|-------------------------------------|
D|--5-5-5-5-5-5-5-5--5-5-5-9-9-4-4-5---|
A|--5-5-5-5-5-5-5-5--5-5-5-9-9-4-4-5---|
E|--3-3-3-3-3-3-3-3--3-3-3-7-7-2-2-3---|

Solo

Guitar1
e|------------------------------------------------------------------------|
B|------------------------------------------------------------------------|
G|------------------------------------------------------------------------|
D|--5-5-5-5-5-5-5-5--7-7-7-9-9-4-4-5--5-5-5-5-5-5-5-5--7-7-7-9-9-4-4-5----|
A|--5-5-5-5-5-5-5-5--7-7-7-9-9-4-4-5--5-5-5-5-5-5-5-5--7-7-7-9-9-4-4-5----|
E|--3-3-3-3-3-3-3-3--5-5-5-7-7-2-2-3--3-3-3-3-3-3-3-3--5-5-5-7-7-2-2-3----|

e|------------------------------------------------------------------------|
B|------------------------------------------------------------------------|
G|------------------------------------------------------------------------|
D|--5-5-5-5-5-5-5-5--7-7-7-9-9-4-4-5--5-5-5-5-5-5-5-5--7-7-7-7-7-7-7-7----|
A|--5-5-5-5-5-5-5-5--7-7-7-9-9-4-4-5--5-5-5-5-5-5-5-5--7-7-7-7-7-7-7-7----|
E|--3-3-3-3-3-3-3-3--5-5-5-7-7-2-2-3--3-3-3-3-3-3-3-3--5-5-5-5-5-5-5-5----|

Guitar2
e|--10-10-10-9--9--9--7-7--5-5-5-3-3-3-2-2--10-10-10-9--9--9--7-7---------|
B|--12-12-12-10-10-10-8-8--7-7-7-5-5-5-3-3--12-12-12-10-10-10-8-8---------|
G|------------------------------------------------------------------------|
D|------------------------------------------------------------------------|
A|------------------------------------------------------------------------|
E|------------------------------------------------------------------------|

e|--5-5-5-3-3-3-2-2--14----------------14----------------14---------------|
B|--7-7-7-5-5-5-4-4-----12-14-15-12-14----12-14-15-12-14----12-14-15------|
G|------------------------------------------------------------------------|
D|------------------------------------------------------------------------|
A|------------------------------------------------------------------------|
E|------------------------------------------------------------------------|

e|--------14----------------14-14~~~~~~~~~~~~~~~~-----|
B|--12-14----12-14-15-12-14----15~~~~~~~~~~~~~~~~-----|
G|----------------------------------------------------|
D|----------------------------------------------------|
A|----------------------------------------------------|
E|----------------------------------------------------|


Final Chorus

e|-----------------------------------------------------------------------|
B|-----------------------------------------------------------------------|
G|--7-7-7-7-7-7-7-7------------------------------------------------------|
D|--7-7-7-7-7-7-7-7--5-5-5-5-5-5-5-5--7-7-7-7-7-7-7-7--5-5-5-5-5-5-5-5---|
A|--5-5-5-5-5-5-5-5--5-5-5-5-5-5-5-5--7-7-7-7-7-7-7-7--5-5-5-5-5-5-5-5---|
E|-------------------3-3-3-3-3-3-3-3--5-5-5-5-5-5-5-5--3-3-3-3-3-3-3-3---|

e|-----------------------------------------------------------------------|
B|-----------------------------------------------------------------------|
G|--7-7-7-7-7-7-7-7------------------------------------------------------|
D|--7-7-7-7-7-7-7-7--5-5-5-5-5-5-5-5--7-7-7-7-7-7-7-7--5-5-5-5-5-5-5-5---|
A|--5-5-5-5-5-5-5-5--5-5-5-5-5-5-5-5--7-7-7-7-7-7-7-7--5-5-5-5-5-5-5-5---|
E|-------------------3-3-3-3-3-3-3-3--5-5-5-5-5-5-5-5--3-3-3-3-3-3-3-3---|

e|-----------------------------------------------------------------------|
B|-----------------------------------------------------------------------|
G|--7-7-7-7-7-7-7-7------------------------------------------------------|
D|--7-7-7-7-7-7-7-7--5-5-5-5-5-5-5-5--7-7-7-7-7-7-7-7--5-5-5-5-5-5-5-5---|
A|--5-5-5-5-5-5-5-5--5-5-5-5-5-5-5-5--7-7-7-7-7-7-7-7--5-5-5-5-5-5-5-5---|
E|-------------------3-3-3-3-3-3-3-3--5-5-5-5-5-5-5-5--3-3-3-3-3-3-3-3---|

e|-----------------------------------------------------------------------|
B|-----------------------------------------------------------------------|
G|--7-7-7-7-7-7-7-7------------------------------------------------------|
D|--7-7-7-7-7-7-7-7--5-5-5-5-5-5-5-5--7-7-7-7-7-7-7-7--5-5-5-5-5-5-5-5---|
A|--5-5-5-5-5-5-5-5--5-5-5-5-5-5-5-5--7-7-7-7-7-7-7-7--5-5-5-5-5-5-5-5---|
E|-------------------3-3-3-3-3-3-3-3--5-5-5-5-5-5-5-5--3-3-3-3-3-3-3-3---|

e|-----------------------|
B|-----------------------|
G|-----------------------|
D|--5-5-5-9-9-4-4-5------|
A|--5-5-5-9-9-4-4-5------|
E|--3-3-3-7-7-2-2-3------|


Well, There You have it All Is Not Lost by OK Go, Comment,Rate,Enjoy! :P
            
Submit corrections

comments powered by Disqus
↑ Back to top | O.K. Go Tabs for All Is Not Lost. Lyrics for acoustic guitar and electric guitar. 1 Tablatures and chords are parodies/interpretations of the original songs. You may use it for private study, scholarship, research or language learning purposes only