» » »

O.K. Go, All Is Not Lost Chords (ver.1)

Artists:  A B C D E F G H I J K L M N O P Q R S T U V W X Y Z # 

All Is Not Lost Chords (ver.1)

O.K. Go Tabs
 Rating:
4/5 (4 votes)
All Is Not Lost lessons Tabs too difficult? Try these video lessons and learn fast
                Artist - OK Go

This is my first tab or chording or whatever, so don't smash me if it's wrong. I'm 
99% that the rhythm guitar is exactly as it is in the song.



Verse 1:

A5 B5 F#5 G5                 A5 B5 F#5 G5
          It's coming down babe
G5                                A5 B5 F#5 G5
Could be as bad as they talked about
G5                 A5 B5 F#5 G5
It's coming down babe
G5                               A5 B5 F#5 G5
Could be before we could make it out

Chorus:

D5
When they say
G5
All is lost
A5
All is not lost
G5
All is not lost
D5
When they say
G5
All is lost
A5
All is not lost
G5
All is not lost
A5                B5 F#5 G5
All is not lost at all

Verse 2: Verse 2 uses the same rhythm as Verse 1.

They could be right about it
They could be right in some crazy way
Cause if they are fine, then that's what we get
Cause if they are fine, then that's what we get

Verse 3: I think it's Verse 3. It could be Verse 2 still, but I don't think you care.

Two years countin' babe
Not all as bad as they talked about
But just remind me when the tide rolls in
Can't be too long till it rolls back out

(Chorus)


Bridge:

A5            B5
And if they burn
A5       B5       D5    A5
If they burn this place down
D5             G5  A5 B5 F#5 G5
What does it matter?
G5               A5 B5 F#5 G5
What does it matter?

Solo: f**k YEAH!!! WORKED OUT THE SOLO!!! Took me so long, even though it's real 
short. I was trying to figure it out and I couldn't quite get it right. But here 
it is!!!


e|--7-5-3-2-0-|
B|--7-5-3-2-0-|
G|------------|  X2
D|------------|
A|------------|
E|------------|
Trem. picking the whole way through.

e|-----------14----------------14----------------14-------15-15-15-15-15-15-15-----|
B|--15-12-14----12-14-15-12-14----12-14-15-12-14----12-14----14-14-14-14-14-14-----|
G|---------------------------------------------------------------------------------|
D|---------------------------------------------------------------------------------|
A|---------------------------------------------------------------------------------|
E|---------------------------------------------------------------------------------|

Then there's just another

(Chorus)

AND WE'RE DONE.

Expect a full tab for Skyscr*pers soon. It's being perfected, solo and all, and 
should be coming in a few days/a week.
            
Submit corrections

comments powered by Disqus
↑ Back to top | O.K. Go Chords for All Is Not Lost. Lyrics for acoustic guitar and electric guitar. Tablatures and chords are parodies/interpretations of the original songs. You may use it for private study, scholarship, research or language learning purposes only