» » »

For The Love Of Money Bass tabs (ver.2)

Artists:  A B C D E F G H I J K L M N O P Q R S T U V W X Y Z # 

For The Love Of Money Bass tabs (ver.2)

Ojays
Rating:
0/5 (0 votes)

Tabs too difficult? Try these video lessons and learn fast.
                A classic riff done right! Listen to the song for the various forms of syncopation within. Enjoy!

*Detune the lower E string down to D to get the low run up to Verse1


Intro
G |-----7-7--5-5--|-5-5-5-5-5p4h5/7-|
D |---------------|-----------------|
A |-5-5-----------|-----------------|
D*|---------------|-----------------|
 ^^^^^^Played 8 Times ^^^^^^^^^

Low Run To Verse1
G |-----7-7--5-5--|-5-5-5------------------|
D |---------------|------------------------|
A |-5-5-----------|------------------------|
D*|---------------|------0-7-0-9-0-10-0-11-|


Verse1:  “Some people, got to have it ...”
G |-----7-7--5-5--|-5-5-5-5-5p4h5/7-|
D |---------------|-----------------|
A |-5-5-----------|-----------------|
D*|---------------|-----------------|
     ^^^^^^^Played 6 Times ^^^^^^

Break
G |----------|
D |----------|
A |---p3h4---|
D*|-7--------|
      ^16x^   

Verse2:  Money Money Money
G |-----------|--5-5-5-5p4h5/7---|
D |-----------|------------------|
A |----5-4-3--|------------------|
D*|-----------|------------------|
 ^^^^^^Played 4 Times (syncopated)^^^^^^
       (repeat and fade for end)

“For that lean,    -   mean ...”
G |--------------------|
D |--------------------|
A |------------4-4-----|
D*|---5-5-5-5-------7--|

“Green – Almighty Dollar”
G |-----7-7--5-5--|-5-5-5-5-5p4h5/7-|
D |---------------|-----------------|
A |-5-5-----------|-----------------|
D*|---------------|-----------------|
     ^^^^^^^Played 2 Times ^^^^^^

[Back to verse2]

Bridge:
G |----------------------|------------------------------------|
D |-5-----------3h5-3h5--|------------------------------------|
A |---2--3--5-5----------|------------------------------------|
D*|----------------------|-7-7-7-7-7-7-7-7-7-7-7-7-7----------|
      ^^Played 6 Times^^

[Back to verse2 for end]
            
Tabs too difficult? Try these video lessons and learn fast.




comments powered by Disqus
↑ Back to top | Tablatures and chords are parodies/interpretations of the original songs. You may use it for private study, scholarship, research or language learning purposes only