» » »

Oingo Boingo, Stay Tabs (ver.1)

Artists:  A B C D E F G H I J K L M N O P Q R S T U V W X Y Z # 

Stay Tabs (ver.1)

Oingo Boingo Tabs
Rating:
0/5 (0 votes)
Stay lessons Tabs too difficult? Try these video lessons and learn fast
                Main Guitar Riff:

E-------------------------------------------------|
B-------------------------------------------------|
G-------------------2--------------------2--------|
D------3-1--1-3-1-3--------3-1-3---1---1-----1-3--|
A--------------------------------3---3-----3------|
E--1-1-----------------1-1------------------------|


Chorus Riff:

E-----------------------------------|
B--------------------------------2--|
G------3-----------------3-----1----|
D----3---3-----4-------3---3--------|
A--1---------4---4---1-------4------|
E----------2------------------------| x 2

E---------------------------------|
B------------------------------2--|
G------1---------------1-----1----|
D----1---1-----4-----1---1--------|
A------------4---4---------4------|
E--4-------2-------4--------------|   x 2


that's the main guitar parts of the song.
            
Submit corrections

comments powered by Disqus
↑ Back to top | Oingo Boingo Tabs for Stay. Lyrics for acoustic guitar and electric guitar. Tablatures and chords are parodies/interpretations of the original songs. You may use it for private study, scholarship, research or language learning purposes only