» » »

Off By One, Cinderella Tabs (ver.1)

Artists:  A B C D E F G H I J K L M N O P Q R S T U V W X Y Z # 

Cinderella Tabs (ver.1)

Off By One Tabs
 Rating:
4/5 (6 votes)
Cinderella lessons Tabs too difficult? Try these video lessons and learn fast
1
                
Hi guys well this is my first tab. I am 99.9% positive that this is correct. All the 
tabs for this song are just wrong and they only did the intro so im going to give you the 

Intro:   Guitar 1 (clean) (4x)

e---------------------------------------------------------------------|
B---------------------------------------------------------------------|
G--------------6------------------------------------------------------|
D--------7-----------2-----4-----4-----0-----5-----0------------------|
A----5-5---5-5---0-0---0-0---0-0---0-0---0-0---0-0--------------------|
E---------------------------------------------------------------------|
PM   . . . . . . . . . . . . . . . . . . . . . . . .

Intro:   Guitar 2 (distortion) (4x)  -note- start playing after guitar 1 plays intro twice.

e---------------------------------------------------------------------|
B---------------------------------------------------------------------|
G--------------6------------------------------------------------------|
D--------7-----------2-----4-----4-----0-----5-----0------------------|
A----5-5---5-5---0-0---0-0---0-0---0-0---0-0---0-0--------------------|
E---------------------------------------------------------------------|
PM   . . . . . . . . . . . . . . . . . . . . . . . .

Intro continued: Guitar 1 (4x) -note- the second time you play with strum faster. if you 
to the song you'll understand.

e---------------------------------------------------------------------|
B---------------------------------------------------------------------|
G---11-11--9-9---7-7---6-7----11-11--9-9---7-7---6-7------------------|
D---x--x---x-x---x-x---x-x----x--x---x-x---x-x---x-x------------------|
A---9--9---7-7---5-5---4-5----9--9---7-7---5-5---4-5------------------|
E---------------------------------------------------------------------|

Intro continued: Guitar 2

e---------------------------------------------------------------------|
B---------------------------------------------------------------------|
G--7-7-7-7-7-7-------------------------4-4-4-4-2-2-2-2----------------|
D--7-7-7-7-7-7-7-7-7-7-7-7-5-5-5-5-5-5-4-4-4-4-2-2-2-2----------------|
A--5-5-5-5-5-5-7-7-7-7-7-7-5-5-5-5-5-5-2-2-2-2-0-0-0-0----------------|
E--------------5-5-5-5-5-5-3-3-3-3-3-3--------------------------------|


e-------------------------------------------------|
B-------------------------------------------------|
G--7-7-7-7-7-7---------------------------------7--|
D--7-7-7-7-7-7-7-7-7-7-7-7-5-5-5-5-5-5-5-5-5-5-7--| Let it ring into verse
A--5-5-5-5-5-5-7-7-7-7-7-7-5-5-5-5-5-5-5-5-5-5-5--|
E--------------5-5-5-5-5-5-3-3-3-3-3-3-3-3-3-3----|

Verse 1

e---------------------------------------------------------------------|
B---------------------------------------------------------------------|
G--7-7-7-7-7-7-7-7-7-7-7-7--------------------------------------------|
D--7-7-7-7-7-7-7-7-7-7-7-7-5-5-5-5-5-5-5-5-5-5-5-5--------------------|
A--5-5-5-5-5-5-5-5-5-5-5-5-5-5-5-5-5-5-5-5-5-5-5-5--------------------|
E--------------------------3-3-3-3-3-3-3-3-3-3-3-3--------------------|
PM . .   . .   . .   . .   . .   . .   . .   . .

e---------------------------------------------------------------------|
B---------------------------------------------------------------------|
G---------------------------------------------------------------------|
D--7-7-7-7-7-7-7-7-7-7-7-7---5---7------------------------------------|
A--7-7-7-7-7-7-7-7-7-7-7-7---5---7------------------------------------|
E--5-5-5-5-5-5-5-5-5-5-5-5---3---5------------------------------------|
PM . .   . .   . .   . .


Chorus:  Guitar 1 (2x) listen to figure out the timing. =] its simple

e----------------------------------------------------------------------|
B----------------------------------------------------------------------|
G--11--9---14---12-11--9-----------------------------------------------|
D--x---x---x----x--x---x-----------------------------------------------|
A--9---7---12--10--9---7-----------------------------------------------|
E----------------------------------------------------------------------|

Chorus: Guitar 2  (2x)

e---------------------------------------------------------------------|
B---------------------------------------------------------------------|
G--7------------------------------------------------------------------|
D--7-x8--7------5-----------------------------------------------------|
A--5-----7-x 8--5-x16-------------------------------------------------|
E--------5------3-----------------------------------------------------|

Pre Verse Guitar 2 (2x)

heres the thing im guessing you can play this or you can play or you can play just a D 
chord palm muted. which ever perferd
e---------------------------------------------------------------------|
B---------------------------------------------------------------------|
G--------------6------------------------------------------------------|
D--------7-----------2-----4-----4-----0-----5-----0------------------|
A----5-5---5-5---0-0---0-0---0-0---0-0---0-0---0-0--------------------|
E---------------------------------------------------------------------|
PM   . . . . . . . . . . . . . . . . . . . . . . . .
or
e---------------------------------------------------------------------|
B---------------------------------------------------------------------|
G---7-7-7-7-7-7-7-7-7-------------------------------------------------|
D---7-7-7-7-7-7-7-7-7-------------------------------------------------|
A---5-5-5-5-5-5-5-5-5-------------------------------------------------|
E---------------------------------------------------------------------|
PM  . . . . . . . . .

Pre Verse: Guitar 1 (1x) after guitar 2 plays it once

e---------------------------------------------------------------------|
B---------------------------------------------------------------------|
G---11-11--9-9---7-7---6-7----11-11--9-9---7-7---6-7------------------|
D---x--x---x-x---x-x---x-x----x--x---x-x---x-x---x-x------------------|
A---9--9---7-7---5-5---4-5----9--9---7-7---5-5---4-5------------------|
E---------------------------------------------------------------------|

2 Verse:

e---------------------------------------------------------------------|
B---------------------------------------------------------------------|
G---7-----------------------------------------------------------------|
D---7let it ring------------------------------------------------------|
A---5-----------------------------------------------------------------|
E---------------------------------------------------------------------|

e---------------------------------------------------------------------|
B---------------------------------------------------------------------|
G--7-7-7-7-7-7-7-7-7-7-7-7--------------------------------------------|
D--7-7-7-7-7-7-7-7-7-7-7-7-5-5-5-5-5-5-5-5-5-5-5-5--------------------|
A--5-5-5-5-5-5-5-5-5-5-5-5-5-5-5-5-5-5-5-5-5-5-5-5--------------------|
E--------------------------3-3-3-3-3-3-3-3-3-3-3-3--------------------|
PM . .   . .   . .   . .   . .   . .   . .   . .

e---------------------------------------------------------------------|
B---------------------------------------------------------------------|
G---------------------------------------------------------------------|
D--7-7-7-7-7-7-7-7-7-7-7-7---5---7------------------------------------|
A--7-7-7-7-7-7-7-7-7-7-7-7---5---7------------------------------------|
E--5-5-5-5-5-5-5-5-5-5-5-5---3---5------------------------------------|
PM . .   . .   . .   . .


Chorus:  Guitar 1 (2x) like before listen for the timing.

e----------------------------------------------------------------------|
B----------------------------------------------------------------------|
G--11--9---14---12-11--9-----------------------------------------------|
D--x---x---x----x--x---x-----------------------------------------------|
A--9---7---12--10--9---7-----------------------------------------------|
E----------------------------------------------------------------------|

Chorus: Guitar 2  (2x)

e---------------------------------------------------------------------|
B---------------------------------------------------------------------|
G--7------------------------------------------------------------------|
D--7-x8--7------5-----------------------------------------------------|
A--5-----7-x 8--5-x16-------------------------------------------------|
E--------5------3-----------------------------------------------------|

Interlude: listen carefull

e----------------------------------------------------|-----------------|
B----------------------------------------------------|-----------------|
G--------------6-------------------------------------|----------6------|
D--------7-----------2-----4-----4-----0-----5-----0-|-----7-----------|
A----5-5---5-5---0-0---0-0---0-0---0-0---0-0---0-0---|-5-5---5-5-------|
E----------------------------------------------------|-----------------|
PM   . . . . . . . . . . . . . . . . . . . . . . . .
                      (5x)                                (1x)

e---------------------------------------------------------------------|
B---------------------------------------------------------------------|
G---------------------------------------------------------------------|
D------2-----4--------------------------------------------------------|
A--0-0---0-0---Pick scr*pe--------------------------------------------|
E---------------------------------------------------------------------|


Solo: guitar 1

e---------------------------------------------------------------------|
B----------------------------------10-8-7h-8-7h-8--10-8-7-----10-8-7h-|
G----------------------7-6-7-9-7-6------------------------7-7---------|
D--4-2-5-4-5-7-5-4-5--------------------------------------------------|
A---------------------------------------------------------------------|
E---------------------------------------------------------------------|


e---------------------------------------------------------------------|
B--8h-7-----8-7-8-10-8-7-8-7-8-10-------------------------------------|
G-------9-7-----------------------------------------------------------|
D---------------------------------------------------------------------|
A---------------------------------------------------------------------|
E---------------------------------------------------------------------|

guitar 2 (2x) I think... IM not to sure about this sorry. but it sounds good.

e---------------------------------------------------------------------|
B---------------------------------------------------------------------|
G--7------------------------------------------------------------------|
D--7-x8--7------5-----------------------------------------------------|
A--5-----7-x 8--5-x16-------------------------------------------------|
E--------5------3-----------------------------------------------------|


Last Chorus

Chorus:  Guitar 1 (2x) like before listen for the timing.

e----------------------------------------------------------------------|
B----------------------------------------------------------------------|
G--11--9---14---12-11--9-----------------------------------------------|
D--x---x---x----x--x---x-----------------------------------------------|
A--9---7---12--10--9---7-----------------------------------------------|
E----------------------------------------------------------------------|

Chorus: Guitar 2  (2x)

e---------------------------------------------------------------------|
B---------------------------------------------------------------------|
G--7------------------------------------------------------------------|
D--7-x8--7------5-----------------------------------------------------|
A--5-----7-x 8--5-x16-------------------------------------------------|
E--------5------3-----------------------------------------------------|


Outro: YA! (4x)

e---------------------------------------------------------------------|
B---------------------------------------------------------------------|
G--------------6------------------------------------------------------|
D--------7-----------2-----4-----4-----0-----5-----0------------------|
A----5-5---5-5---0-0---0-0---0-0---0-0---0-0---0-0--------------------|
E---------------------------------------------------------------------|
PM   . . . . . . . . . . . . . . . . . . . . . . . .

Ya okay guys so Like I said its my first tab and im pretty sure its accurate i mean it 
good to me so ya. thank you guys and i hope you enjoy.


Lyrics:

I'm getting sick of this
This fighting's killing me
There was a time when I'd gladly
Would take this cr*p from you
Yeah you were worth the pain
But now its just a twisted game

Someday, someway, I'l say, no way
To you, what else can I do
This war, I swore, meant more, before
You see, when you meant everything to me

You used to yell at me
It used to turn me on
But suddenly the feelings gone
Now I just see your mouth
And all the words get lost
And it cant help but turn me off

Someday, someway, I'll say, no way
To you, what else can I do
This war, I swore, meant more, before
You see, when you meant everything to me

Times up, I've had, enough of you

There was a time and place
You smack me in the face
And that would be ok
It's not ok today, today, no way

Someday, someway, I'll say, no way
To you, what else can I do
This war, I swore, meant more, before
You see, when you meant everything to me
            
Submit corrections

comments powered by Disqus
↑ Back to top | Off By One Tabs for Cinderella. Lyrics for acoustic guitar and electric guitar. 1 Tablatures and chords are parodies/interpretations of the original songs. You may use it for private study, scholarship, research or language learning purposes only