» » »

Conquering Fools Tabs (ver.2)

Artists:  A B C D E F G H I J K L M N O P Q R S T U V W X Y Z # 

Conquering Fools Tabs (ver.2)

Of A Revolution
Rating:
0/5 (0 votes)

Hard to play? Try these video lessons and learn fast.
                (Intro)
Intro to Conquering Fools by O.A.R.

/ Slide up             b(#) bend to # fret

|----------------------------------------------------|
|--10/12-10-9-10-9-----------------------------------|
|------------------11-9--------9---11-11b(12)-9---9--|
|-------------------------9-11-----------------------|
|----------------------------------------------------|
|----------------------------------------------------|

|----------------------------------------------------|
|--10/12-10-9-10-9-----------------------------------|
|------------------11-9--------9---11-11b(12)-9----9-|
|-------------------------9-11------------------11---|
|----------------------------------------------------|
|----------------------------------------------------|

|-------------------------|
|--10/12-10-9-10-9--------|
|------------------11-9---|
|-------------------------|
|-------------------------|
|-------------------------|
            
Hard to play? Try these video lessons and learn fast. | Correct




comments powered by Disqus
↑ Back to top | Tablatures and chords are parodies/interpretations of the original songs. You may use it for private study, scholarship, research or language learning purposes only