» » »

Odds, Someone Who's Cool Tabs (ver.2)

Artists:  A B C D E F G H I J K L M N O P Q R S T U V W X Y Z # 

Someone Who's Cool Tabs (ver.2)

Odds Tabs
 Rating:
4/5 (4 votes)
Someone Who's Cool lessons Tabs too difficult? Try these video lessons and learn fast
                Someone Who Is Cool - the odds - tune low E down to D capo 3rd fret

verse {distortion}
|-----------------------------------------------|
|-----------------------------------------------|
|-------------------2-2-2-2--2------------------|
|-------------------2-2-2-2--2------------------|x2
|-0-0-0-0--3-3-3-3--0-0-0-0--0-3-3-3------------|
|-0-0-0-0--3-3-3-3-------------3-3-3------------|

chorus
|----------2-2-2-2----|---------------------|-2-2-2-2--2-|
|----------3-3-3-3----|---------------------|-3-3-3-3--3-|
|-4-4-4-4--2-2-2-2----|-0-0-0-0--2-2-2-2----|-2-2-2-2--2-|
|-5-5-5-5--0-0-0-0-x2-|-2-2-2-2--2-2-2-2-x2-|-0-0-0-0--0-|
|-5-5-5-5--0-0-0-0----|-2-2-2-2--0-0-0-0----|-0-0-0-0--0-|
|----------x-x-x-x----|---------------------|-x-x-x-x--x-|

verse {distortion}
|-----------------------------------------------|
|-----------------------------------------------|
|-------------------2-2-2-2--2------------------|
|-------------------2-2-2-2--2------------------|x2
|-0-0-0-0--3-3-3-3--0-0-0-0--0-3-3-3------------|
|-0-0-0-0--3-3-3-3-------------3-3-3------------|

chorus
|----------2-2-2-2----|---------------------|-2-2-2-2--2-|
|----------3-3-3-3----|---------------------|-3-3-3-3--3-|
|-4-4-4-4--2-2-2-2----|-0-0-0-0--2-2-2-2----|-2-2-2-2--2-|
|-5-5-5-5--0-0-0-0-x2-|-2-2-2-2--2-2-2-2-x2-|-0-0-0-0--0-|
|-5-5-5-5--0-0-0-0----|-2-2-2-2--0-0-0-0----|-0-0-0-0--0-|
|----------x-x-x-x----|---------------------|-x-x-x-x--x-|

bridge (play bridge chords throw solo)
|-2-2-2-2--0-0-0-0--0-0-0-0--2-2-2-2-----|
|-3-3-3-3--0-0-0-0--0-0-0-0--3-3-3-3-----|
|-2-2-2-2--1-1-1-1--4-4-4-4--2-2-2-2-----|
|-0-0-0-0--2-2-2-2--5-5-5-5--0-0-0-0-----|
|-0-0-0-0--2-2-2-2--5-5-5-5--0-0-0-0-----|
|-x-x-x-x--0-0-0-0--0-0-0-0--x-x-x-x-----|

verse {distortion}
|-----------------------------------------------|
|-----------------------------------------------|
|-------------------2-2-2-2--2------------------|
|-------------------2-2-2-2--2------------------|x2
|-0-0-0-0--3-3-3-3--0-0-0-0--0-3-3-3------------|
|-0-0-0-0--3-3-3-3-------------3-3-3------------|

chorus
|----------2-2-2-2----|---------------------|-2-2-2-2--2-|
|----------3-3-3-3----|---------------------|-3-3-3-3--3-|
|-4-4-4-4--2-2-2-2----|-0-0-0-0--2-2-2-2----|-2-2-2-2--2-|
|-5-5-5-5--0-0-0-0-x2-|-2-2-2-2--2-2-2-2-x2-|-0-0-0-0--0-|
|-5-5-5-5--0-0-0-0----|-2-2-2-2--0-0-0-0----|-0-0-0-0--0-|
|----------x-x-x-x----|---------------------|-x-x-x-x--x-|

bridge (play bridge chords throw solo)
|-2-2-2-2--0-0-0-0--0-0-0-0--2-2-2-2-----|
|-3-3-3-3--0-0-0-0--0-0-0-0--3-3-3-3-----|
|-2-2-2-2--1-1-1-1--4-4-4-4--2-2-2-2-----|
|-0-0-0-0--2-2-2-2--5-5-5-5--0-0-0-0-----|
|-0-0-0-0--2-2-2-2--5-5-5-5--0-0-0-0-----|
|-x-x-x-x--0-0-0-0--0-0-0-0--x-x-x-x-----|
            
Submit corrections

comments powered by Disqus
↑ Back to top | Odds Tabs for Someone Who's Cool. Lyrics for acoustic guitar and electric guitar. Tablatures and chords are parodies/interpretations of the original songs. You may use it for private study, scholarship, research or language learning purposes only