» » »

Oceansize, Music For A Nurse Tabs (ver.2)

Artists:  A B C D E F G H I J K L M N O P Q R S T U V W X Y Z # 

Music For A Nurse Tabs (ver.2)

Oceansize Tabs
 Rating:
4/5 (4 votes)
Music For A Nurse lessons Tabs too difficult? Try these video lessons and learn fast
1
                This is the main guitar part from the start at 67 bpm... it isn't that hard to play this (:
      D                   G                   Bm                
      W                   W                   W                 
E||--------------------|-------------------|-------------------|
B||---7----------------|-------------------|--3----------------|
G||*-------------------|--4----------------|-------------------|
D||*-------------------|-------------------|-------------------|
A||---5----------------|-------------------|--2----------------|
E||--------------------|--3----------------|-------------------|


  A                   G                      Bb6               
  W                   W                 3x   W                 
-------------------|--------------------||--------------------|
--2----------------|--------------------||---3----------------|
-------------------|--4----------------*||*-------------------|
-------------------|-------------------*||*-------------------|
--0----------------|--------------------||---1----------------|
-------------------|--3-----------------||--------------------|


  A7sus4              C6                  Dsus2               
  W                   W                   W                   
-------------------|-------------------|--------------------||
--3----------------|--5----------------|--5-----------------||
-------------------|-------------------|-------------------*||
-------------------|-------------------|-------------------*||
--0----------------|--3----------------|--5-----------------||
-------------------|-------------------|--------------------||


   D                   G                   Bm                
   W                   W                   W                 
--------------------|-------------------|-------------------|
---7----------------|-------------------|--3----------------|
*-------------------|--4----------------|-------------------|
*-------------------|-------------------|-------------------|
---5----------------|-------------------|--2----------------|
--------------------|--3----------------|-------------------|


  A                   G                   
  W                   W                 3x
-------------------|--------------------||
--2----------------|--------------------||
-------------------|--4----------------*||
-------------------|-------------------*||
--0----------------|--------------------||
-------------------|--3-----------------||




Duration Legend
---------------
W - whole
H - half
Q - quarter
E - 8th
S - 16th
T - 32nd
X - 64th
. - note dotted
|-n-|  - n-tuplets


Tablature Legend
----------------
L - tied note
x - dead note
g - grace note
(n) - ghost note
> - accentuded note
NH - natural harmonic
AH - artificial harmonic
TH - tapped harmonic
SH - semi harmonic
PH - pitch harmonic
h - hammer on
p - pull off
b - bend
br - bendRelease
pb - preBend
pbr - preBendRelease
brb - bendReleaseBend
\n/ - tremolo bar dip
\n - tremolo bar dive
-/n - tremolo bar Release up
/n\ - tremolo bar inverted dip
/n - tremolo bar return
-\n - tremolo bar Release down
S - shift slide
s - legato slide
/ -  slide into from below or out of upwards
\ -  slide into from above or out of downwards
~ - vibrato
W - wide vibrato
tr - trill
TP - tremolo picking
T - tapping
S - slap
P - pop
< - fade in
^ - brush up
v - brush down
            
Submit corrections

comments powered by Disqus
↑ Back to top | Oceansize Tabs for Music For A Nurse. Lyrics for acoustic guitar and electric guitar. 1 Tablatures and chords are parodies/interpretations of the original songs. You may use it for private study, scholarship, research or language learning purposes only