» » »

Oceano, District Of Misery Tabs (ver.1)

Artists:  A B C D E F G H I J K L M N O P Q R S T U V W X Y Z # 

District Of Misery Tabs (ver.1)

Oceano Tabs
 Rating:
3.6/5 (7 votes)
District Of Misery lessons Tabs too difficult? Try these video lessons and learn fast
1
                Tuning:Drop a standard (D)
Im lookig forward to tabbing more of these guys awesome songs.


-----------------------------------------------------|
-----------------------------------------------------|
-----------------------------------------------------|
-----------------------------------------------------|    x8
-1-1-1------1-1-1--1-1-1--1-1-1------------1-1-1-----|
-1-1-1------1-1-1--1-1-1--1-1-1------------1-1-1-----|

Tremolo Pick each    for exact picking just listen to the song.
--------------------------------------------------------------|
--------------------------------------------------------------|
--------------------------------------------------------------|
--------------------------------------------------------------|
-------8--7-5---4---------------------------------------------|
---0----------------------------------------------------------|

-------------------------------------------------------------|
-------------------------------------------------------------|
-------------------------------------------------------------|
-------------------------------------------------------------|
-------8---7-12--5--4----------------------------------------|
---0---------------------------------------------------------|

-----------------------------------------------------|
-----------------------------------------------------|
-----------------------------------------------------|
-----------------------------------------------------|
---2-1-0-2----1-1-0-1--------------------------------|
---2-1-0-2----1-1-0-1--------------------------------|

Break (Instrumental) I hink it goes sumpthin lik this

---------------------------------------------------------------------|
---------------------------------------------------------------------|
---------------------------------------------------------------------|
------7/11-12-12/18-17-----------------------------------------------|
---------------------------------------------------------------------|
---------------------------------------------------------------------|


------------------------------------------------------|
------------------------------------------------------|
------------------------------------------------------|  play during break
------------------------------------------------------|
------------------------------------------------------|
-0--0-0--0--0--0--0--0-0-0--0--0-0--0--0--0--0--0-0-0-|

------------------------------------------------------|
------------------------------------------------------|      and this
------------------------------------------------------|
------------------------------------------------------|
-0--0-0--0--0--0--0--0-0-0--0--0-0--0--0--0--0--0-0-0-|
-1--1-1--1--1--1--1--1-1-1--1--1-1--1--1--1--1--1-1-1-|

-----------------------------------------------------------------|
-----------------------------------------------------------------|
-----------------------------------------------------------------|
-----------------------------------------------------------------|
-0-0-0-0-0-0-0-0-0-0-0-0-0-0-0-0-0-0-0-0-0-0-0-0-0-0-0-0-0-0-0-0-|
-1-1-1-1-1-1-1-1-1-1-1-1-1-1-1-1-1-1-1-1-1-1-1-1-1-1-1-1-1-1-1-1-|
x2 either do this or replace the open on the a string with a F note to make it sound better.

------------------------------------------------------|
------------------------------------------------------|
------------------------------------------------------|
------------------------------------------------------| x2 i think
-2-------------------7-------6------------------------|
-2-------------------7-------6------------------------|

------------------------------------------------------|
------------------------------------------------------|
------------------------------------------------------|
------------------------------------------------------| x2
------------------------------------------------------|
-2tp-------------------7tp-------6tp------------------|


--------------------------------------------------------------------|
--------------------------------------------------------------------|
--------------------------------------------------------------------|
--------------------------------------------------------------------| x2 i think
-2--2-2-2-2-2-2-2-2-2-2---7-7-7-7--6-6-6-6-6-6-6-6-6-6-6-6-6-6-6-6--|
-2--2-2-2-2-2-2-2-2-2-2---7-7-7-7--6-6-6-6-6-6-6-6-6-6-6-6-6-6-6-6--|


-----------------------------------------------------|
-----------------------------------------------------|
-----------------------------------------------------|
-----------------------------------------------------|    x8 it may vary on the ending
-1-1-1------1-1-1--1-1-1--1-1-1------------1-1-1-----|
-1-1-1------1-1-1--1-1-1--1-1-1------------1-1-1-----|
            
Submit corrections

comments powered by Disqus
↑ Back to top | Oceano Tabs for District Of Misery. Lyrics for acoustic guitar and electric guitar. 1 Tablatures and chords are parodies/interpretations of the original songs. You may use it for private study, scholarship, research or language learning purposes only