» » »

Oceano, District Of Misery Bass tabs (ver.1)

Artists:  A B C D E F G H I J K L M N O P Q R S T U V W X Y Z # 

District Of Misery Bass tabs (ver.1)

Oceano Tabs
 Rating:
4/5 (4 votes)
District Of Misery lessons Tabs too difficult? Try these video lessons and learn fast
                -----------------------------------------------------------------
District of Misery Oceano
-----------------------------------------------------------------
Tuning: AEAD

For the parts like the verse where its one note that *ISNT* held you play 16th notes 
until you hear it change. It's an easy enough song just listen to it and read the tab.

~ Hold

Intro/outro
D|---------------------------------------------------------------|
A|---------------------------------------------------------------|
E|---------------------------------------------------------------|
A|111-111-1111-11--111-------------------------------------------|

Verse x2
D|---------------------------------------------------------------|
A|---------------------------------------------------------------|
E|--------8----------------7---------5--4------------------------|
A|0--------------------------------------------------------------|

D|---------------------------------------------------------------|
A|---------------------------------------------------------------|
E|--------8----------------7---12-----5----4---------------------|
A|0--------------------------------------------------------------|

Repeat alot
D|---------------------------------------------------------------|
A|---------------------------------------------------------------|
E|---------------------------------------------------------------|
A|-2-1-0-2-1-1-0-1-----------------------------------------------|

x8
D|---------------------------------------------------------------|
A|---------------------------------------------------------------|
E|---------------------------------------------------------------|
A|-0-00--0-0-0-0-00----------------------------------------------|

x16
D|---------------------------------------------------------------|
A|---------------------------------------------------------------|
E|---------------------------------------------------------------|
A|-1-11-1-1-1-1-11-----------------------------------------------|

(Hold each for a measure)
X2
D|---------------------------------------------------------------|
A|---------------------------------------------------------------|
E|---------------------------------------------------------------|
A|2~--7~---6~----------------------------------------------------|

(16th notes!)
alot
D|---------------------------------------------------------------|
A|---------------------------------------------------------------|
E|---------------------------------------------------------------|
A|-2-----7---6---------------------------------------------------|

The first time you play this play the 6 part x2 and the second time play it just once or 
something. Just listen to the song
 X2
D|---------------------------------------------------------------|
A|---------------------------------------------------------------|
E|---------------------------------------------------------------|
A|-2-2-2-2-2-2-2-2-----------------------------------------------|

D|---------------------------------------------------------------|
A|---------------------------------------------------------------|
E|---------------------------------------------------------------|
A|-2-2-2-2-7-7-7-7-----------------------------------------------|

D|---------------------------------------------------------------|
A|---------------------------------------------------------------|
E|---------------------------------------------------------------|
A|-6-6-6-6-6-6-6-6-----------------------------------------------|

Go back to intro
            
Submit corrections

comments powered by Disqus
↑ Back to top | Oceano Bass for District Of Misery. Lyrics for acoustic guitar and electric guitar. Tablatures and chords are parodies/interpretations of the original songs. You may use it for private study, scholarship, research or language learning purposes only