>
 >
Riverboat Song Intro

Riverboat Song Intro Guitar Tabs

Ocean Colour Scene - Riverboat Song Intro chords, tabs, tablatures, lyrics

Guitar lessons | Add/correct | Request | Top 50 tabs Artists:  A B C D E F G H I J K L M N O P Q R S T U V W X Y Z 0-9

Riverboat Song Intro Guitar Tabs – Ocean Colour Scene

CD, Sheet music, Poster

Do you like Riverboat Song Intro? Share with your friends now
Tabs
Here is the solo for the beginning of the Riverboat Song.
Mild attempt at timing.

e||-10--7--10--7--10--7---10--|-12b14r12--10--7h10p7------|
B||---------------------------|---------------------------|
G||---------------------------|---------------------------|
D||---------------------------|---------------------------|
A||---------------------------|---------------------------|
E||---------------------------|---------------------------|

e||---------------------------|---------------------------|
B||-10--7---------------------|-10 slow bend to 12--------|
G||--------7b-----------------|---------------------------|
D||------------9--7--9---9----|---------------------------|
A||---------------------------|---------------------------|
E||---------------------------|---------------------------|





Comments


Popular Ocean Colour Scene tabs & chords
Give Me A Letter Bass Tabs
The Day We Caught The Train 3 Bass Tabs
Huckleberry Grove Chords
Just A Little Bit Of Love 1 Chords
Monday Morning Chords
The Waves Chords
Sail On My Boat Tabs
Drive Away Ukulele
Huckleberry Grove Ukulele
The Best Bet On Chinaski Ukulele


Song lyrics



↑ Back to top | Tablatures and chords are parodies/interpretations of the original songs. You may use it for private study, scholarship, research or language learning purposes only
© 2014 AZChords.com Contact us | Privacy policy | DMCA | Add/correct tabs | Request tabs | Top 50 tabs