» » »

Mechanical Wonder Bass tabs (ver.1)

Artists:  A B C D E F G H I J K L M N O P Q R S T U V W X Y Z # 

Mechanical Wonder Bass tabs (ver.1)

Ocean Colour Scene
Rating:
0/5 (0 votes)

Hard to play? Try these video lessons and learn fast.
                ---

Bass in Standard E, A, D, G tuning.

Listen to the song for the timing.


This is only the basic framework, it generally repeats,
but varies from verse to verse with the odd extra note
leading the chord changes.


Intro

G--------------------------------------------
D--------------------------------------------
A----9-7-9-7----9-7--5-----2-0---------------
E---------------------------------0----0-----



Verse


G------------------------------------------------
D----------------------------------------0---0-0-
A-0---0-0---0---0--------------------2-----------
E-----------------4-2-0---0-0---0--4-------------


G------------------------------------------------
D-0---0---0-2---2-2---2--------------------------
A-------4-----------------4-2-4------------------
E------------------------------------------------


G------------------------------------------------
D----------------------------------------0---0-0-
A-0---0-0---0---0--------------------2-----------
E-----------------4-2-0---0-0---0--4-------------


G------------------------------------------------
D-0---0---0-2---2-2---2--------------------------
A-------4----------------------------------------
E--------------------------0-2-4-----------------


G------------------------------------------------
D----------------------------------------0---0-0-
A-0---0-0---0---0--------------------2-4---------
E-----------------4-2-0---0-0---0--4-------------


G------------------------------------------------
D-0---0---012---2-2---2--------------------------
A-------4----------------------------------------
E-------------------------0-2-4------------------




Bridge


G------------------------------------------------
D----------------------------------------0---0-0-
A-0---0-0---0---0--------------------------------
E-------------------0---0-0---0------------------


G------------------------------------------------
D-0---0-0---2---2-2---2--------------------------
A-------------------------4-2--------------------
E-----------------------------4------------------



Chorus: Same as verse.


Outro:

G--------------------------------------------
D--------------------------------------------
A----9-7-9-7--4-0----------------------------
E--------------------------------------------
            
Hard to play? Try these video lessons and learn fast. | Correct




comments powered by Disqus
↑ Back to top | Tablatures and chords are parodies/interpretations of the original songs. You may use it for private study, scholarship, research or language learning purposes only