» » »

Ocean Colour Scene, Mechanical Wonder Tabs (ver.1)

Artists:  A B C D E F G H I J K L M N O P Q R S T U V W X Y Z # 

Mechanical Wonder Tabs (ver.1)

Ocean Colour Scene Tabs
 Rating:
4.3/5 (6 votes)
Mechanical Wonder lessons Tabs too difficult? Try these video lessons and learn fast
                Into riff (played in other parts throughout song)


e|------12-10-9----------12-10-9---------10-9-7-5-----------|
B|---10----------10---10----------9---7------------10-9-7-5-|
G|----------------------------------------------------------|
D|----------------------------------------------------------|
A|----------------------------------------------------------|
E|----------------------------------------------------------|

                    Riff 2 (after intro riff)
e|----------------------------------------------------------|
B|---------7-7-5---5-7--------------------------------------|
G|---------------7------------------------------------------|
D|----------------------------------------------------------|
A|----------------------------------------------------------|
E|----------------------------------------------------------|

Verse

A
The mechanical wonder is
E
Is just a noise in my room
D
And i'm chasing the wonder and
E
its just a hole in my tune      (SECOND GUITAR PLAYS RIFF 2 HERE)
A
And the radio plays but it
E
But it don't sing a song
D
The mechanical thunder is
E
What is all going on             (AND HERE)
A
And i walk down the road
E
And i awake in a tune
D
And the mechanical thunder is
E
Just a noise in my room

                              (INTRO RIFF  REPEATED)

Chorus

       A
And we rode it once
     E
On a thundering night
        D
So I'll walk with you
          E
Where the locks take flight

                              (second riff again after chorus)

(Repeat verse 1 for second verse)

(Repeat chorus)

(Repeat verse 1 for third verse)
            
Submit corrections

comments powered by Disqus
↑ Back to top | Ocean Colour Scene Tabs for Mechanical Wonder. Lyrics for acoustic guitar and electric guitar. Tablatures and chords are parodies/interpretations of the original songs. You may use it for private study, scholarship, research or language learning purposes only