» » »

Oceana, We Are The Messengers Tabs (ver.1)

Artists:  A B C D E F G H I J K L M N O P Q R S T U V W X Y Z # 

We Are The Messengers Tabs (ver.1)

Oceana Tabs
 Rating:
4/5 (4 votes)
We Are The Messengers lessons Tabs too difficult? Try these video lessons and learn fast
1
                Oceana - We are the messengers - The Tide

Tuning - C Sharp 

Intro - Both guitars
|--------------------------------------------------------------------|
|--------------13----------13----------------------------------------|
|-7------------12----------12----------------7-------7---------------|
|-5------------10-(x8)-----10----------12----5-------5--12-----------|
|-6-(x16)------------------11--(x8)----12--0-6-0-0-0-6--12-----------|
|--------------------------------------12\-0---0-0-0----12\----------| [x2]



Chorus - Lead guitar
|----------------------------------5\12\8\12\10---17--12-13-12------------|
|--------------------------------------------------------------13-15-13---|
|-------------10-9----12-10-9-10\7--------------------------------------14|
|-------10-12------10-----------------------------------------------------|
|-10-12-------------------------------------------------------------------|
|-------------------------------------------------------------------------|

Rhythm 
|---------------------------------------|
|---------------------------------------|
|---------------------------------------|
|-0--------5---------10-------0---------|
|-0--------5---------10-------0---------|
|-0--------5---------10-------0---------|


Breakdown - Lead guitar sweeping motion
|------------------------------------------------------------|
|--------------------------------------17-18-17--------------|
|----------------------------------14--------------17--------|
|--------10-12-12-14-14-15-----------------------------------|
|-10-12------------------------------------------------------|
|------------------------------------------------------------|


|-------------------------------------------------------------|
|--------------------------------------17-18-17---------------|
|----------------------------------14--------------17-14-17-14|
|--------10-12-12-14-14-15------------------------------------|
|-10-12-------------------------------------------------------|
|-------------------------------------------------------------|


|------------------------------------------------------------|
|------------------------------------------------------------|
|----------------------------------14\17---------------------|
|--------10-12-12-14-14-15-----------------------------------|
|-10-12------------------------------------------------------|
|------------------------------------------------------------|


|--------------------------------------------------------------------|
|--------------------------------------------------------------------|
|--------------------------------------------------------------------|
|--------------------------------------------------------------------|
|------7-----7-(7)8\3--------7------10---12--------------------------|
|-0-\7---0-8-----------0-7-8---0-\8----11----------------------------|

|-----------------------------------------------------------|
|-----------------------------------------------------------|
|-10--9--10--12-12---17-14-12----14-------------------------|
|-x---x--x----x--x----x--x--x-----x-------------------------|
|-8---7--8-\-10-10-\-15-12-10----12-------------------------|
|-0---0-----------------------------------------------------|

Leads
|--------------------------------------------------------|
|--------------------------------------------------------|
|-9-10-9-------------------------------------------------|
|--------10-12-0-------10-12-10--------------------------|
|----------------10-12-----------------------------------|
|--------------------------------------------------------|

|-------------------------------------------------|
|-------------------------------------13----------|
|-------------------10-12-12-14-12-14-------------|
|-------10-12-12-14-------------------------------|
|-10-12-------------------------------------------|
|-------------------------------------------------|

|-13-12------------------------------|
|-------13---------------------------|
|----------14------------------------|
|-------------15-14-14-14-15---------|
|----------------------------15-17---|
|------------------------------------|

Breakdown Chords
|--------------------------------|
|------15------------------------|
|-14---14---14---7---------------|
|-15---12---15---5---------------|
|-12--------12---6---------------|
|--------------------------------|

Leads
|------------------------------------------|
|------------------------------------------|
|------------------------------------------|
|-------10-12----14----15---10----12---14--|
|-10-12------------------------------------|
|------------------------------------------|

Ending
|--------------------------------|
|--------------------------------|
|---7-------7--------------------|
|---5-------5--------------------|
|-0-6-------6-0~-----------------|
|-0---0-0-0---0~-----------------|

here's a video if you need it - 
            
Submit corrections

comments powered by Disqus
↑ Back to top | Oceana Tabs for We Are The Messengers. Lyrics for acoustic guitar and electric guitar. 1 Tablatures and chords are parodies/interpretations of the original songs. You may use it for private study, scholarship, research or language learning purposes only