» » »

Oceana, The Accountable Tabs (ver.3)

Artists:  A B C D E F G H I J K L M N O P Q R S T U V W X Y Z # 

The Accountable Tabs (ver.3)

Oceana Tabs
Rating:
0/5 (0 votes)
The Accountable lessons Tabs too difficult? Try these video lessons and learn fast
                This is the tab for The Accountable, i know there aere a few other tabs of this song, 
i wanted to get it right as im pretty sure they play it. There are just some minor 
here and there. There is a small bit missing after the breakdown, i will add that 
later in a comment. Enjoy.
Tuning is Drop C#.




|-------------------------------------------------------------|
|-------------------------------------------------------------|
|-------------------------------------------------------------|
|--0--------------------------5----7------8---8-8-8-----------|
|--0---7-8-------------7------7----8------7---7-7-7-----------|
|--0-------0-5-0-8-7-0 8--0-0---0-0--0-0----------------------| x8?

|-------------------------------------------------------------|
|-------------------------------------------------------------|
|--14-14-14-14-14-14-14-14-14-14-14-14-14-14------------------|
|-------------------------------------------------------------|
|--12-12-12-12-12-12-12-12-12-12-12-12-12-12------------------|
|-------------------------------------------------------------|


|------------------------------------------------------------|
|------------------------------------------------------------|
|-----------7h9-10h12h10--14h10------------------------------|
|--0-7h10-0--------------------------------------------------|
|------------------------------------------------------------|
|------------------------------------------------------------|


|--------------------------------------15--------------------|
|--------------18-15-17----------18-15-----------18-15-17----|
|-----15~14~-------------15-14-------------15-14-------------|
|------------------------------------------------------------|
|------------------------------------------------------------|
|------------------------------------------------------------|

|---------------------------------|
|------------18-14~---------------|
|-----15-14------------------ ----|
|---------------------------------|
|---------------------------------|
|---------------------------------|

|---------------------------------------------------------------------|
|----18-18-18-18--15-15-17-17-----------------------------------------|
|-------------------------------15bend--14bend------------------------|
|-----------------------------------------------14bend----------------|
|---------------------------------------------------------------------|
|---------------------------------------------------------------------|

|-----------------------------------------------------------|
|-----------------------------------------------------------|
|-----------------------------------------------------------|
|-14-14-14-14-14-14-14-14-14-14-14-14-15-15-15-15-----------|
|-12-12-12-12-12-12-12-12-15-15-15-15-17-17-17-17-----------|
|-----------------------------------------------------------|

|-----------------------------------------------------------------|
|--------------------15-17-15 -----------------------7~-------10~-|
|--------------14-15----------17--12-14bend--------6-------10-----|
|--15-14-----------------------------------------5-------8--------|
|---------15-17---------------------------------------------------|
|-----------------------------------------------------------------|

|------------------------------------------------------------|
|------------------------------------------------------------|
|------------------------------------------------------------|
|---------------------------------------------------5~-------|
|---0-0-0-0-0-----0-0-0-0----0-0-0-0-0----0-0-0-0---5~-------|
|---0-0-0-0-0-----0-0-0-0----0-0-0-0-0----0-0-0-0---5~-------| Repeat.

e|------------------------------------------------------------|
B|------------------------------------------------------------|
G|------------------10-9--------------------------------------|
D|--0~-----------------------------12--------------10---------|
A|--0~---------------------------8---------------8------------|
E|--0~-------------------------8---------------8--------------|
            

comments powered by Disqus
↑ Back to top | Oceana Tabs for The Accountable. Lyrics for acoustic guitar and electric guitar. Tablatures and chords are parodies/interpretations of the original songs. You may use it for private study, scholarship, research or language learning purposes only