» » »

Oceana, The Abortion Plan Tabs (ver.1)

Artists:  A B C D E F G H I J K L M N O P Q R S T U V W X Y Z # 

The Abortion Plan Tabs (ver.1)

Oceana Tabs
 Rating:
4/5 (4 votes)
The Abortion Plan lessons Tabs too difficult? Try these video lessons and learn fast
                This for the rhythm guitar, it's kind of repitive,but it is a very good song. Any 


Intro/Verse x3
----------------------------------------------------------------------------|
----------------------------------------------------------------------------|
----------------------------------------------------------------------------|
----------------------------------------------------------------------------|
-9-9-9-9-9-9-9-9-9-9-9-9--11-11-11-11---5-5-5-5-5-5-5-5-5-5-5-5-------------|
----------------------------------------------------------------------------|

----------------------------------------------------------------------------|
----------------------------------------------------------------------------|
----------------------------------------------------------------------------|
----------------------------------------------------------------------------|
--7-7-7-7-7-7-7-7-7-7-7-7--4-4-4-4-4-4-4-4-4-4-4-4--------------------------|
----------------------------------------------------------------------------|

Chorus: x2
----------------------------------------------------------------------------|
----------------------------------------------------------------------------|
----------------------------------------------------------------------------|
-11-11-11-11-11-11-11-11-11-11-11-11--13-13-13-13--7-7-7-7-7-7-7-7-7-7-7-7--|
-9--9--9--9--9--9--9--9--9--9--9--9---11-11-11-11--5-5-5-5-5-5-5-5-5-5-5-5--|
----------------------------------------------------------------------------|

----------------------------------------------------------------------------|
----------------------------------------------------------------------------|
----------------------------------------------------------------------------|
-9-9-9-9-9-9-9-9-9-9-9-9--6-6-6-6-6-6-6-6-6-6-6-6---------------------------|
-7-7-7-7-7-7-7-7-7-7-7-7--4-4-4-4-4-4-4-4-4-4-4-4---------------------------|
----------------------------------------------------------------------------|

Verse: x2
----------------------------------------------------------------------------|
----------------------------------------------------------------------------|
----------------------------------------------------------------------------|
----------------------------------------------------------------------------|
-9-9-9-9-9-9-9-9-9-9-9-9--11-11-11-11---5-5-5-5-5-5-5-5-5-5-5-5-------------|
----------------------------------------------------------------------------|
                                                   On last time play this:
--------------------------------------------------*-----------------------*
--------------------------------------------------*-----------------------*
--------------------------------------------------*-----------------------*
--------------------------------------------------*-11~----9~----8~-------*
-7-7-7-7-7-7-7-7-7-7-7-7--4-4-4-4-4-4-4-4-4-4-4-4-*-9-~----7~----4~-------*
--------------------------------------------------*-----------------------*

Chorus: x2
----------------------------------------------------------------------------|
----------------------------------------------------------------------------|
----------------------------------------------------------------------------|
-11-11-11-11-11-11-11-11-11-11-11-11--13-13-13-13--7-7-7-7-7-7-7-7-7-7-7-7--|
-9--9--9--9--9--9--9--9--9--9--9--9---11-11-11-11--5-5-5-5-5-5-5-5-5-5-5-5--|
----------------------------------------------------------------------------|

----------------------------------------------------------------------------|
----------------------------------------------------------------------------|
----------------------------------------------------------------------------|
-9-9-9-9-9-9-9-9-9-9-9-9--6-6-6-6-6-6-6-6-6-6-6-6---------------------------|
-7-7-7-7-7-7-7-7-7-7-7-7--4-4-4-4-4-4-4-4-4-4-4-4---------------------------|
----------------------------------------------------------------------------|

Short Little Fill:
-----------|
-----------|
-----------|
-11~-11~---|
-9-~-9-~---|
-----------|

Bridge: x2 All downstrokes
----------------------------------------------------------------------------|
----------------------------------------------------------------------------|
----------------------------------------------------------------------------|
-11-11-11-11-11-11-11-11--7-7-7-7-7-7-7-7--9-9-9-9-9-9-9-9------------------|
-9--9--9--9--9--9--9--9---5-5-5-5-5-5-5-5--7-7-7-7-7-7-7-7------------------|
----------------------------------------------------------------------------|

------------------|
------------------|
------------------|
-6-6-6-6-6-6-6-6--|
-4-4-4-4-4-4-4-4--|
------------------|

Chorus: x4
----------------------------------------------------------------------------|
----------------------------------------------------------------------------|
----------------------------------------------------------------------------|
-11-11-11-11-11-11-11-11-11-11-11-11--13-13-13-13--7-7-7-7-7-7-7-7-7-7-7-7--|
-9--9--9--9--9--9--9--9--9--9--9--9---11-11-11-11--5-5-5-5-5-5-5-5-5-5-5-5--|
----------------------------------------------------------------------------|

----------------------------------------------------------------------------|
----------------------------------------------------------------------------|
----------------------------------------------------------------------------|
-9-9-9-9-9-9-9-9-9-9-9-9--6-6-6-6-6-6-6-6-6-6-6-6---------------------------|
-7-7-7-7-7-7-7-7-7-7-7-7--4-4-4-4-4-4-4-4-4-4-4-4---------------------------|
----------------------------------------------------------------------------|

Outro:
----------------------------------------------------------------------------|
----------------------------------------------------------------------------|
----------------------------------------------------------------------------|
-66-66-66-66-66-66-66-66-66-66-66-66-66-66-66-66-66-66-66-66----------------|
-44-44-44-44-44-44-44-44-44-44-44-44-44-44-44-44-44-44-44-44----------------|
----------------------------------------------------------------------------|

----------------------------------------------------------------------------|
----------------------------------------------------------------------------|
----------------------------------------------------------------------------|
----------------------------------------------------------------------------|
-9-9-9-9-9-9-9-9-9-9-9-9--11-11-11-11---5-5-5-5-5-5-5-5-5-5-5-5-------------|
----------------------------------------------------------------------------|

----------------------------------------------------------------------------|
----------------------------------------------------------------------------|
----------------------------------------------------------------------------|
----------------------------------------------------------------------------|
-7-7-7-7-7-7-7-7-7-7-7-7--4-4-4-4-4-4-4-4-4-4-4-4---------------------------|
----------------------------------------------------------------------------|

----------------------------------------------------------------------------|
----------------------------------------------------------------------------|
----------------------------------------------------------------------------|
----------------------------------------------------------------------------|
-9-9-9-9-9-9-9-9-9-9-9-9--11-11-11-11---5-5-5-5-5-5-5-5-5-5-5-5-------------|
----------------------------------------------------------------------------|

----------------------------------------------------------------------------|
----------------------------------------------------------------------------|
----------------------------------------------------------------------------|
----------------------------------------------------------------------------|
-7-7-7-7-7-7-7-7-7-7-7-7--4-4-4-4-4-4-4-4-4-4-4-4---------------------------|
----------------------------------------------------------------------------|
            
Submit corrections

comments powered by Disqus
↑ Back to top | Oceana Tabs for The Abortion Plan. Lyrics for acoustic guitar and electric guitar. Tablatures and chords are parodies/interpretations of the original songs. You may use it for private study, scholarship, research or language learning purposes only