» » »

Oceana, Hello Astronaut Tabs (ver.1)

Artists:  A B C D E F G H I J K L M N O P Q R S T U V W X Y Z # 

Hello Astronaut Tabs (ver.1)

Oceana Tabs
 Rating:
4.5/5 (8 votes)
Hello Astronaut lessons Tabs too difficult? Try these video lessons and learn fast
1
                i did not figure out this song it is from another user

tuning Db


Eb-------18---------18-------------18---------18-------|
Bb-----15--15-----15--15---------15--15-----15--15-----|
Gb---14---------14-------------14---------14-----------|
Db-0----------0----------0--00----------0----------00--|
Ab-0----------0----------0--00----------0----------00--|
Db-0----------0----------0--00----------0----------00--| 2X


Eb-------18--------17-18-15-------------18---------------|
Bb-----15--15--15----------14-14------15--15-------------|
Gb---14------14--12-----------------14---------5555-9999-|
Db-0-----------------------------00----------0-xxxx-xxxx-|
Ab-0-----------------------------00----------0-3333-7777-|
Db-0-----------------------------00----------0-----------|

Eb-------18--------17-18-15-------------18------17----17---|
Bb-----15--15--15----------14-14------15--15------15----15-|
Gb---14------14--12-----------------14--------------12-----|
Db-0-----------------------------00----------0-------------|
Ab-0-----------------------------00----------0-------------|
Db-0-----------------------------00----------0-------------|

Eb-------------------------------------------|
Bb-------------------------------------------|
Gb-------------------------------------------|
Db-8------7------5-----10------5-----9-------|
Ab-8------7------x----- x------x-----x-------|
Db-8(16X)-7(16X)-3(6X)- 8(10X)-3(6X)-7-(10X)-|

Eb--------------------18-----18----------------------------|
Bb----------------------15---------------------------------|
Gb-----14-----------------14----------14-------------9-----|
Db-000- x-----000-000-----------0-000- x-----000-000-x-----|
Ab-000-12(4X)-000-000-----------0-000-12(4X)-000-000-7(6X)-|
Db-000--------000-000-----------0-000--------000-000-------| 4X
   ...        ... ...           . ...        ... ...

Eb----
Bb----
Gb----
Db-8~-
Ab-8~-
Db-8~-

Eb----------------------|
Bb----------------------|
Gb-10------14-----7-----|
Db- 8------12-----5-----|
Ab- 8------12-----5-----|
Db- 8(16X)-12(8X)-5(8X)-| 4X

Eb-----------------------------------------|
Bb-------------------------------- 7----11-|
Gb----------10-----------10-------10----14-|
Db-00000000- x-----000-0- x-----0----00----|
Ab-00000000- 8(9X)-000-0- 8(8X)-0----00----|
Db-00000000--------000-0--------0----00----| 2x
   ........        ... .        .    ..

Eb-----18-----|
Bb-------15---|
Gb---------14-|
Db-0~---------|
Ab-0~---------|
Db-0~---------| 2X

Eb-------18---------18-------------18---------18-------|
Bb-----15--15-----15--15---------15--15-----15--15-----|
Gb---14---------14-------------14---------14-----------|
Db-0----------0-------------00----------0----------00--|
Ab-0----------0-------------00----------0----------00--|
Db-0----------0-------------00----------0----------00--| 2X

Eb--------------------18-----18----------------------------|
Bb----------------------15---------------------------------|
Gb-----14-----------------14----------14-------------9-----|
Db-000- x-----000-000-----------0-000- x-----000-000-x-----|
Ab-000-12(4X)-000-000-----------0-000-12(4X)-000-000-7(6X)-|
Db-000--------000-000-----------0-000--------000-000-------| 6X (FADES OUT)
   ...        ... ...           . ...        ... ...

THAT IS ALL.......PLEASE RATE THIS TAB
            
Submit corrections

comments powered by Disqus
↑ Back to top | Oceana Tabs for Hello Astronaut. Lyrics for acoustic guitar and electric guitar. 1 Tablatures and chords are parodies/interpretations of the original songs. You may use it for private study, scholarship, research or language learning purposes only