» » »

Hello Astronaut Bass tabs (ver.1)

Artists:  A B C D E F G H I J K L M N O P Q R S T U V W X Y Z # 

Hello Astronaut Bass tabs (ver.1)

Oceana
Rating:
5/5 (1 vote)

Tabs too difficult? Try these video lessons and learn fast.
                Hi, My Name Is Michael. I Really Like The band "Oceana"

G--------------------------------------------------------------------|
D--------------------------------------------------------------------|
A--------------------------------------------------------------------|
D-0----------0------------0-00-------0----------0-0-0----------------|


G--------------------------------------------------------------------|
D--------------------------------------------------------------------|
A--------------------------------------------------------------------|
D-0-------0--00----0---0---------------------------------------------|


G--------------------------------------------------------------------|
D--------------------------------------------------------------------|
A------------------------------5555--9999----------------------------|
D-0------0----00--------0--------------------------------------------|

G--------------------------------------------------------------------|
D--------------------------------------------------------------------|
A--------------------------------------------------------------------|
D-0------0----00---------0-------------------------------------------|

G--------------------------------------------------------------------|
D--------------------------------------------------------------------|
A--8(x16)--7(x16)--5(x6)--10(x10)--5(x6)--9(x10)---------------------|
D--------------------------------------------------------------------|


G-------------------------------------------------------------------- |
D-------------------------------------------------------------------- |  x4
A-------------------------------------------------------------------- |
D-000---000-000----0-000-----000-000--------------------------------- |


G--------------------------------------------------------------------|
D--------------------------------------------------------------------|
A---8----6------8----6-----------------------------------------------|
D--------------------------------------------------------------------|


G-------------------------------------------------------------------- |
D-------------------------------------------------------------------- |  x4
A--8(x16)--12(x8)--5(x8)--------------------------------------------- |
D-------------------------------------------------------------------- |


G-------------------------------------------------------------------- |
D-------------------------------------------------------------------- |  x2
A-------------------------------------------------------------------- |
D--00000000-----000-0-----0----00------------------------------------ |


G-------------------------------------------------------------------- |
D-------------------------------------------------------------------- |  x2
A-------------------------------------------------------------------- |
D--0----------------------------------------------------------------- |


G--------------------------------------------------------------------|
D--------------------------------------------------------------------|
A--------------------------------------------------------------------|
D--0----0-----00-----0-----0-0-0(hold)-------------------------------|


G--------------------------------------------------------------------|
D--------------------------------------------------------------------|
A----------------------1(S)------------------------------------------|
D--0----00-----0-----------------------------------------------------|

G--------------------------------------------------------------------|
D--------------------------------------------------------------------|
A--------------------------------------------------------------------|
D-000---000-000----0-000-----000-000---------------------------------|

Well here is my tab if you have any questions or anything about this tab you can contact 
at
            
Tabs too difficult? Try these video lessons and learn fast.




comments powered by Disqus
↑ Back to top | Tablatures and chords are parodies/interpretations of the original songs. You may use it for private study, scholarship, research or language learning purposes only