» » »

Oceana, Antlophobia Tabs (ver.2)

Artists:  A B C D E F G H I J K L M N O P Q R S T U V W X Y Z # 

Antlophobia Tabs (ver.2)

Oceana Tabs
Rating:
5/5 (3 votes)
Antlophobia lessons Tabs too difficult? Try these video lessons and learn fast
                
Tuning: drop C or C#
(guitar I)
e|----------------------------------------------------------------------------------|
B|----------------------------------------------------------------------------------|
G|-----------------------------------------------------2----------------------------|
D|-------------------------------------------4--5-----------------------------------|
A|---------1----------1-------1--------1-----------5--------------------------------|
E|---5 5-------5 5---------1-----3--1-----------------------------------------------|
( guitar II)
e|-----------------------------------------------------------------------------|
B|-----------------------------------------------------------------------------|
G|---13-13-----15-15--16-16--11-11--9-9----------------------------------------|
D|-----------------------------------------------------------------------------|
A|-----------------------------------------------------------------------------|
E|-----------------------------------------------------------------------------|

e|-----------------------------------------------------------------------------|
B|-----------------------------------------------------------------------------|
G|--------------------------------------------------------------------X2-------|
D|-------------------------------------------------------10 10 10--------------|
A|-----------------------------------------------------------------------------|
E|--5-2-5-8-5-0-3-5-8-5-3-0---5-2-5-8-5-0-3-5-8-5-3-0----8--8--8---------------|

e|---------------------------------------------------------------------------|
B|------------------------------------------------------- -------------------|
G|---------------------------------------------------------------------------|play till the outro
D|---------------------------------------------------------------------------|
A|----11 11 11 11 11 11 11 11 9 9 9 9 12 12 12 12 8 8 8 8 8 8 8 8 7 7 7 7 7--|
E|----11 11 11 11 11 11 11 11 9 9 9 9 12 12 12 12 8 8 8 8 8 8 8 8 7 7 7 7 7--|

this should be alright i just tabbed it by ear today.
            

comments powered by Disqus
↑ Back to top | Oceana Tabs for Antlophobia. Lyrics for acoustic guitar and electric guitar. Tablatures and chords are parodies/interpretations of the original songs. You may use it for private study, scholarship, research or language learning purposes only