» » »

Oasis, Who Feels Love? Tabs (ver.2)

Artists:  A B C D E F G H I J K L M N O P Q R S T U V W X Y Z # 

Who Feels Love? Tabs (ver.2)

Oasis Tabs
 Rating:
4/5 (4 votes)
Who Feels Love? lessons Tabs too difficult? Try these video lessons and learn fast
                Who feels love?



Chords:

G:	320030
Gm/Bb:	x10030
A7sus4:	x02030
Cadd9:	032030
G/B:	x20030


NB: Tune top string down to D


Verse 1:

G
Found what I'd lost inside,
G
My spirit has been purified,
G
Take a thorn from my pride,
   G
And hand in hand we'll take a walk outside


Chorus:

Bm/Bb                                 
Thank you for the sun, 
               A7sus4
The one that shines on everyone,
    Cadd9       G/B
Who feels love
    Bm/Bb
Now there's a million years 
           A7sus4         
Between my fantasies and fears
   G
I feel love


Verse 2:

G
Leaving all that I see,
G
Now all my emotions fill the air i breathe


Chorus 2:
Bm/Bb                           A7sus4                     Cadd9       G/B
Now you understand that this is not the promised land they spoke of
       Bm/Bb                             A7sus4              G       
Theres nothing more to be if you could be the remedy who heals love


Solo

E---------------------------------------
B-----3---------3---------3--------3----
G---4---4-----4---4-----4---4----4---4--
D-5---------3---------2--------0--------
A---------------------------------------
e---------------------------------------  x3
  
E---------------------------------------------------------------------------
B-----3---------3---------3---------3--------3--------3--------3--------3---
G---4---4-----4---4-----4---4-----4---4----4---4----4---4----4---4----4---4-
D-5---------3---------2---------2--------1--------1--------1--------1-------
A---------------------------------------------------------------------------
e---------------------------------------------------------------------------

Pick scr*pe then

2nd part of solo
E------------7--7---7-8--
B------3-6-8------8------
G--4-5-------------------
D------------------------
A------------------------
e------------------------ x3 

Then

E----------------------------------
B------3-6-(-14b-14b-14p12-14/12-)-
G--4-5-----------------------------
D----------------------------------
A----------------------------------
e---------------------------------- Do bracketed part x8 before singing 
                                    comes back but keep doing it until 
                                    last solo


Chorus 3:

Bm/Bb                               
I thank you for the sun, 
             A7sus4
The one that shines on everyone,
    Cadd9       G/B
Who feels love,
    Bm/Bb                              A7sus4
Now there's a million years between my fantasies and fears
   Cadd9        G/B
I feel love
Bm/Bb
I thank you for the sun, 
             A7sus4
The one that shines on everyone,
    Cadd9       G/B
Who feels love
    Bm/Bb                                A7sus4
Now there's a million years between my fantasies and fears
  Cadd9        G/B
I feel love


Last solo
E---------------------------------------
B-----3---------3---------3--------3----
G---4---4-----4---4-----4---4----4---4--
D-5---------3---------2--------0--------
A---------------------------------------
e--------------------------------------- Repeat till fade. 3rd time round 
                                         play second part of solo over this.
            
Submit corrections

comments powered by Disqus
↑ Back to top | Oasis Tabs for Who Feels Love?. Lyrics for acoustic guitar and electric guitar. Tablatures and chords are parodies/interpretations of the original songs. You may use it for private study, scholarship, research or language learning purposes only