>
 >
The Cage

The Cage Guitar Tabs

Oasis - The Cage chords, tabs, tablatures, lyrics

Guitar lessons | Add/correct | Request | Top 50 tabs Artists:  A B C D E F G H I J K L M N O P Q R S T U V W X Y Z 0-9

The Cage Guitar Tabs – Oasis

CD, Sheet music, Poster

Do you like The Cage? Share with your friends now
Tabs

Hidden track of Heathen Chemistry



D-Modal Tuning: DADGBd

CHORDS:

D5 000230
A7sus4 002030
Cadd9 032030
G 020030
Dm 003230

~: vibrato
b: bend
r: release bend
h: hammer on
p: pull off

NOTE: Only the chords on the different parts are listed. You'll have to work out the strumming.

Part #1
-------

   D5         
d--0------------ ]
B--3------------ ]
G--2------------ ]  x3 Then play part #2 
D--0---------0-- ]
A--0-------0---- ]
D--0---0-3------ ]

Riff #1

D--------0-0-
A--0-2h3-----

Riff #2

d--2--
B----0

Part #2
-------

   G            D5
d--0------------0------------]
B--3------------3------------]
G--0------------2------------] x4
D--0---------0--0---------0--]
A--2-------0----0-------0----]
D--0---0-3------0---0-3------]


Part #3
-------

A7sus4 Cadd9 D5 / Cadd9 G D5 / x2

Little Solo #1:

G--9~-9b10-7~--5b7r5------------9~-9b10--12b14r12--10b12r10-
D--------------------5b7r5----------------------------------
A--------------------------8-5------------------------------

G--5-5-5-5h7~-

Back to Part #1 (x1) (pause)

Part #4
-------

   G     Cadd9   D5
d--0-----0-------0------------]
B--3-----3-------3------------]
G--0-----0-------2------------] x2
D--0-----2-------0---------0--]
A--2-----3-------0-------0----]
D--0-------------0---0-3------]

Part #3 again

Little Solo #2:

d--14-14b16r14~-14------------------------------14-14b16r14~-14-------------------------------------
B------------------13b15r13~-------------------------------------13b15r13~--------------------------
G-----------------------------12b14r12~--10-7-------------------------------12b14r12~-12b14r12~-10-7

G--5-5-5-5h7~-

Part #1 (x1)

Part #5
-------

D5 G Cadd9 D5 x4

Cadd9 D5 x3

Cadd9 D5 Dm Cadd9 D5





Comments


Popular Oasis tabs & chords
Mucky Fingers Bass Tabs
D'yer Wanna Be A Spaceman? Chords
Fade Away 3 Chords
Idler's Dream Chords
Shakermaker 1 Chords
Take Me Away Chords
Hey Now Tabs
Shakermaker Intro 1 Tabs
The Hindu Times 1 Tabs
Do You Know What I Mean Ukulele


Song lyrics



↑ Back to top | Tablatures and chords are parodies/interpretations of the original songs. You may use it for private study, scholarship, research or language learning purposes only
© 2014 AZChords.com Contact us | Privacy policy | DMCA | Add/correct tabs | Request tabs | Top 50 tabs