» » »

Oasis, Sunday Morning Call Tabs (ver.2)

Artists:  A B C D E F G H I J K L M N O P Q R S T U V W X Y Z # 

Sunday Morning Call Tabs (ver.2)

Oasis Tabs
 Rating:
4/5 (4 votes)
Sunday Morning Call lessons Tabs too difficult? Try these video lessons and learn fast
                _______Sunday Morning Call by Oasis______

lyrics,music:Noel Gallagher

Sunday Morning Call is the 8th track on the lateas Oasis album
Standing on the shoulder of giants. It's also released as single.

chords:
	EADGBe
Bb     	688766
Dm	x57765	
D	xx0232
G	3x0022
Em	022000
C	332010	
Fmaj7	x33210
Cadd9	x32033
A1	x20033
A2	x30033
Dsus4	xx0233

Intro: Bb Dm Bb Dm

Verse1:
Bb		         Dm
Here's another Sunday morning call 
	          Bb			       Dm     e----------5s6-6    
yeahyeah your head hitter banginging on the door    b------6--------
					 g--7- -----------
Bb		           Dm	
Slip your shoes and then out you crawl
            Bb			Dm	       D	
into a day that couldn't give you more but what for

Chorus:
	 G	       D                          Em	           C	
And in your head do you feel what you're not supposed to feel
	G	    D	          Fmaj7	Em D
and you take what you want but you don't get it for free
           G	           D		         Em			C	   G	
You need more time because your thoughts and words want last forever more
 	  D             Fmaj7             C
And I'm not sure if it ever work out right
                   Dsus4 Cadd9 A1 A2		Dsus4 Cadd9 A1 A2
But it's Ok  			It's all right

verse2:
When you lonley and you start to hear
 the little voices in your head at night
You will always sniff away the tears
so you can dance unti the morning light at what price

Chorus:

Solo:
e----------------------------------------------------------------------------------
B---------------------------------------------6---------------6------------------
G-5b7-5b7-3----------------3---3------------5b7----5----4---5---4---5-   2x
D----------------5-------3h5----5---5p3--------------------------------------
A-------------------3h5----------------------------------------------------------
E----------------------------------------------------------------------------------

then	e----------------------------
	B----------------------------
	G--6--7--7--9--9--9--7-
	D---------------------------
	A----------------------------
	E----------------------------


Chorus:
              D	           Fmaj7      C	               G      D					
.....not sure if  it ever ever ever work out right
           Fmaj7       C		G    D
will it ever ever ever work out right
          Fmaj7       C		G   	
will it ever ever ever work out right
            
Submit corrections

comments powered by Disqus
↑ Back to top | Oasis Tabs for Sunday Morning Call. Lyrics for acoustic guitar and electric guitar. Tablatures and chords are parodies/interpretations of the original songs. You may use it for private study, scholarship, research or language learning purposes only