>
 >
Stay Young 1

Stay Young 1 Guitar Tabs

Oasis - Stay Young 1 chords, tabs, tablatures, lyrics

Guitar lessons | Add/correct | Request | Top 50 tabs Artists:  A B C D E F G H I J K L M N O P Q R S T U V W X Y Z 0-9

Stay Young 1 Guitar Tabs – Oasis

CD, Sheet music, Poster

Do you like Stay Young 1? Share with your friends now
ChordsTabsTabs v2Tabs v3
This is a great song, the only oasis song i still like actually
in bends r means release, p means pull-off and h means hold.

--------------------|------------------|----------------|---------------|-----
-12--10-----------8-|--7-8------10-8---|----------------|---------------|-----
-11--11-11-11-9-7-9-|--7-9-9-11-11-9-7-|--9b11rp7---7-7-|-----7--7------|-----
-12--12----12-------|------------------|----------9-----|---9--------12-|-----
--------------------|------------------|----------------|---------------|-----
--------------------|------------------|----------------|---------------|-----
                                                                              

--------------------|------------------|----------------|---------------|-----
-12--10-----------8-|--7-8------10-8---|----------------|-----------8-7-|-----
-11--11-11-11-9-7-9-|--7-9-9-11-11-9-7-|--9b11-h-11b9---|--7-7-7--7-----|-----
-12--12----12-------|------------------|----------------|---------------|-----
--------------------|------------------|----------------|---------------|-----
--------------------|------------------|----------------|---------------|-----
              verse  ( i can't b bothered to work out the rhythms)            

-2--|-2--|-3--|-3--|-2--|-2--|-3--|-3--|-2--|-2--|-3--|-3---------|-----------
-3--|-3--|-3--|-3--|-3--|-3--|-3--|-3--|-3--|-3--|-3--|-3---------|-----------
-2--|-2--|-0--|-0--|-2--|-2--|-0--|-0--|-2--|-2--|-0--|-0---------|-----------
-0--|-0--|-2--|-0--|-0--|-0--|-2--|-0--|-0--|-0--|-2--|-0-------5-|-----------
----|----|-2--|----|----|----|-2--|----|----|----|-2--|-----5h7---|-----------
----|----|-0--|-3--|----|----|-0--|-3--|----|----|-0--|-3---------|-0-0-0-0-2-
                bridge this is the lead-the chords r 2 easy to work out.      

--------------------|------------------|----------------|---------------|-----
--------------------|------------------|----------------|---------------|-----
-------------------0|------------------|---------------0|---------------|-----
-------------0-0h2--|------------------|---------0-0h2--|---------------|-----
---------0h2--------|------------------|-----0h2--------|---------------|-----
-3---3--------------|-0-0-0-0--2-------|-3-3------------|-0-00-0-2------|-----
                                                                              

--------------------|-------------|---------------|---------------------|-----
--------------------|-------------|---------------|---------------------|-----
--------------------|-------------|---------------|---------------------|-----
------------0-------|-------------|---------------|---------------7-9---|-----
--------0h2---------|-------------|---------------|---------7-8-9-------|-----
-3--3---------------|-5--5--7--7--|-9--9--10--10--|-12-12-9-------------|-----
              chorus. for the solo just play the intro-it's close enough.     

-2-----2-|--------3-|----3---3--|-----5---|-----------------------------------
-3-----2-|--------3-|----3---3--|-----5---|-----------------------------------
-2-----3-|--------4-|----0---0--|-----6---|-x2--------------------------------
-0-----4-|--------5-|----0---2--|-----7---|-----------------------------------
-------4-|--------5-|--------2--|-----7---|-----------------------------------
-------2-|--------3-|----2---0--|-----5---|-----------------------------------
                    solo. there is a bent note leading into it then:          

----------|-----------|--------------------|------------------|--------|------
----------|-----------|-7h8-7----10-8---7--|------------------|--------|------
-------9--|--------9--|--------7-7--7---7--|--9------7-7-9b11-|----r9--|------
----------|-----------|--------------------|-----7h9----------|--------|------
----------|-----------|--------------------|------------------|--------|------
----------|-----------|--------------------|------------------|--------|------
                              -------x2-------   ---------x3--------------    

--------|--------------------|-----------------|---------------|------------|-
--------|-7h8-7-----10-8--7--|-----------------|-8-10-8--------|------------|-
-----9--|--------7--7--7--7--|--9--7--------7--|-9-11-9------7-|-----7-----7|-
--------|--------------------|----------7h9----|---------7h9---|-7h9---7h9--|-
--------|--------------------|-----------------|---------------|------------|-
--------|--------------------|-----------------|---------------|------------|-
   3rd time ending, instead of second bar in repeat. quarter note triplets.   

-------------|-------------|----------------|-------------------|-------------
-2-2-2-3-3-3-|-5-5-5-7-7-7-|-8-8-8-10-10-10-|-12-12-12-14-14-14-|-------------
-------------|-------------|----------------|-------------------|-------------
-------------|-------------|----------------|-------------------|-------------
-------------|-------------|----------------|-------------------|-------------
-------------|-------------|----------------|-------------------|-------------
                   solo during last chorus.                                   

---------------------|--------------------|-------------------|-------------|-
---------------------|--------------------|-------------------|-------------|-
---------------7--0--|--------------7--0--|-------------7-9b11|-9-7-7-7-7-7-|-
-------7-8-9---------|-------7-8-9--------|-------7-8-9-------|-------------|-
-7-8-9---------------|-7-8-9--------------|-7-8-9-------------|-------------|-
---------------------|--------------------|-------------------|-------------|-
                                                                              

--------------------|---------------------|-------------------|---------------
--------------------|---------------------|-------------------|---------------
--------------7-----|--------------7--9---|-9b11r-7-7--7-9--7-|---------------
-------7-8-9--------|-------7-8-9---------|-------------------|---------------
-7-8-9----------9---|-7-8-9---------------|-------------------|---------------
--------------------|---------------------|-------------------|---------------
                            you can work out the rest it's getting generic.   

------7----------7-----|------------------------------------------------------
-----------------------|------------------------------------------------------
-9b11---9-7-9b10---9-9-|------------------------------------------------------
-----------------------|------------------------------------------------------
-----------------------|------------------------------------------------------
-----------------------|------------------------------------------------------





Comments


Popular Oasis tabs & chords
Cloudburst Bass Tabs
Get Off Your High Horse Lady Chords
Going Nowhere Chords
Born On A Different Cloud 2 Tabs
F*Ckin' In The Bushes Tabs
Flashbax Tabs
Stand By Me 1 Tabs
Stop Crying Your Heart Out 4 Tabs
Eyeball Tickler Ukulele
Im Only Sleeping Ukulele


Song lyrics



↑ Back to top | Tablatures and chords are parodies/interpretations of the original songs. You may use it for private study, scholarship, research or language learning purposes only
© 2014 AZChords.com Contact us | Privacy policy | DMCA | Add/correct tabs | Request tabs | Top 50 tabs