» » »

Shout It Out Loud Tabs (ver.2)

Artists:  A B C D E F G H I J K L M N O P Q R S T U V W X Y Z # 

Shout It Out Loud Tabs (ver.2)

Oasis
Rating:
0/5 (0 votes)

Hard to play? Try these video lessons and learn fast.
                Shout It Out Loud - Oasis - 
Found on Stop Crying Your Heart Out single
N. Gallagher



Intro
Em7 D C D C 

Em7                            D
I hope we've found our sweet release
                   C  D         C
I hope it fills a hole within your soul
Em7                         D 
I hope at last we get some peace
                C     D         C 
Hope the light shines on we as one

D                   C 
They'll never be enough to learn
D       C                   D
Rivers deep and the road is long
             C            D
Every which way we turn seems insane 
         C            Am 
But it makes me feel alive

C             G D           Am         C
Shout it out loud while I'm alive
              G D           Am         C 
Shout it out loud while I'm alive
              G D           Am         C
Shout it out loud while I'm alive
C G F C 
Shout it out loud

Solo: Em D C D D

e------------------------12--------------------------------------------
B-12/15s17---------15vvvv--12--------12----12--------------------------
G---------s16-14-16---------------12—14b16—14b16-14b16r14p12-14b16r14--
D----------------------------12h14-----------------------------------14
A----------------------------------------------------------------------
E----------------------------------------------------------------------

e—12!—12b14--10--12----------------------------------------------------
b-------------------12----------12----12-----------------------------9-
g----------------------------12-14b16-14b16-14b16r14p12-14b16r14-----9-
d----------------------12h14--------------------------------------14---
a----------------------------------------------------------------------
E----------------------------------------------------------------------


Em7                    D
As we wish the world away
                      C  D              C 
Do you think its all a dream Cos that's what it seems
Em7                       D
Every night we hope and pray
           C   D             C* 
We can do enough To keep our world


e-----------------
b-1--3--5--1--3---
g-----------------


D                  C
They'll never be enough to learn
D        C                     D
Rivers deep and the road is long
        C                 D 
Every which way we turn seems insane 
         C            Am 
But it makes me feel alive


C             G D              Am 
Shout it out loud while I'm alive
C             G D              Am 
Shout it out loud while I'm alive
C             G D              Am 
Shout it out loud while I'm alive
C             G D              Am 
Shout it out loud while I'm alive
C             G D              Am 
Shout it out loud while I'm alive
C             G D              Am 
Shout it out loud while I'm alive
C             G D              Am 
Shout it out loud while I'm alive
C G F C G 
Shout it out loud shout it out loud




there you go, bit clearer than some ive seen


cheers
            
Hard to play? Try these video lessons and learn fast. | Correct




comments powered by Disqus
↑ Back to top | Tablatures and chords are parodies/interpretations of the original songs. You may use it for private study, scholarship, research or language learning purposes only