>
 >
Shes Electric 4

Shes Electric 4 Guitar Tabs

Oasis - Shes Electric 4 chords, tabs, tablatures, lyrics

Guitar lessons | Add/correct | Request | Top 50 tabs Artists:  A B C D E F G H I J K L M N O P Q R S T U V W X Y Z 0-9

Shes Electric 4 Guitar Tabs – Oasis

CD, Sheet music, Poster

Do you like Shes Electric 4? Share with your friends now
ChordsTabs
OASIS - She's Electric

What's The Story) Morning Glory?


This is my first ever tab, I hope you like it, I spent a long time making it.
This tab is quite similar to the first tab posted but I have added the lead parts to the 
and 4th verses, the final pre-chorus, chorus and outro.
I have also included a guide to the timing of the chords, I hope you can understand it, 
will be more clear if you listen to the song whilst using the tab.
This is the way me and my band play this, it sounds really good.

------
Intro
------

Gtr.1       E     G#        C#m         A
e|----------------4-4-4-4----4-4-4-4---------------------------|
B|----------0-0---4-4-4-4----5-5-5-5----2-2-2------------------|
G|----------1-1---5-5-5-5----6-6-6-6----2-2-2------------------|  x 3
D|----------2-2---6-6-6-6----6-6-6-6----2-2-2------------------|
A|----------2-2---6-6-6-6----4-4-4-4----0-0-0------------------|
E|----------------4-4-4-4----4-4-4-4---------------------------|

Gtr.2
e|-------------------------------------------------------------|
B|-------------------------------------------------------------|
G|-------------------------------------------------------------|  x 3
D|------------------------------------------2------------------|
A|------------------------------------2-2h4---4-2--------------|
E|-------------------------------------------------------------|


Gtr.1       C     D       E
e|----------------2-2-2----------------------------------------|
B|----------1-1---3-3-3---0-0-0-0-0-0-0-0----------------------|
G|----------0-0---2-2-2---1-1-1-1-1-1-1-1----------------------|
D|----------2-2---0-0-0---2-2-2-2-2-2-2-2----------------------|
A|----------3-3-----------2-2-2-2-2-2-2-2----------------------|
E|-------------------------------------------------------------|

Gtr.2
e|-------------------------------------------------------------|
B|-------------------------------------------------------------|
G|---------9---11----13----13h14-----13------------------------|
D|-------------------------------------------------------------|
A|-------------------------------------------------------------|
E|-------------------------------------------------------------|


-------
Verse 1
-------
Gtr.1       E     G#        C#m         A
e|----------------4-4-4-4----4-4-4-4---------------------------|
B|----------0-0---4-4-4-4----5-5-5-5----2-2-2------------------|
G|----------1-1---5-5-5-5----6-6-6-6----2-2-2------------------|
D|----------2-2---6-6-6-6----6-6-6-6----2-2-2------------------|
A|----------2-2---6-6-6-6----4-4-4-4----0-0-0------------------|
E|----------------4-4-4-4----4-4-4-4---------------------------|

Gtr.2
e|-------------------------------------------------------------|
B|-------------------------------------------------------------|
G|-------------------------------------------------------------|
D|------------------------------------------2------------------|
A|------------------------------------2-2h4---4-2--------------|
E|-------------------------------------------------------------|

            She's........... Electric


Gtr.1       E     G#        C#m         A
e|----------------4-4-4-4----4-4-4-4---------------------------|
B|----------0-0---4-4-4-4----5-5-5-5----2-2-2------------------|
G|----------1-1---5-5-5-5----6-6-6-6----2-2-2------------------|
D|----------2-2---6-6-6-6----6-6-6-6----2-2-2------------------|
A|----------2-2---6-6-6-6----4-4-4-4----0-0-0------------------|
E|----------------4-4-4-4----4-4-4-4---------------------------|

Gtr.2
e|-------------------------------------------------------------|
B|------------------------------------12-12-12-10-9------------|
G|------------------------------------13-13-13-11-9------------|
D|-------------------------------------------------------------|
A|-------------------------------------------------------------|
E|-------------------------------------------------------------|

            She's in a family full of eccentrics


Gtr.1       E     G#        C#m         A
e|----------------4-4-4-4----4-4-4-4---------------------------|
B|----------0-0---4-4-4-4----5-5-5-5----2-2-2------------------|
G|----------1-1---5-5-5-5----6-6-6-6----2-2-2------------------|
D|----------2-2---6-6-6-6----6-6-6-6----2-2-2------------------|
A|----------2-2---6-6-6-6----4-4-4-4----0-0-0------------------|
E|----------------4-4-4-4----4-4-4-4---------------------------|

Gtr.2
e|-------------------------------------------------------------|
B|-------------------------------------------------------------|
G|-------------------------------------------------------------|
D|------------------------------------------2------------------|
A|------------------------------------2-2h4---4-2--------------|
E|-------------------------------------------------------------|

            She's done things ive never expected


Gtr.1       C     D       E
e|----------------2-2-2----------------------------------------|
B|----------1-1---3-3-3---0-0-0-0-0-0-0-0----------------------|
G|----------0-0---2-2-2---1-1-1-1-1-1-1-1----------------------|
D|----------2-2---0-0-0---2-2-2-2-2-2-2-2----------------------|
A|----------3-3-----------2-2-2-2-2-2-2-2----------------------|
E|-------------------------------------------------------------|

Gtr.2
e|-------------------------------------------------------------|
B|-------------------------------------------------------------|
G|---------9---11----13----13h14-----13------------------------|
D|-------------------------------------------------------------|
A|-------------------------------------------------------------|
E|-------------------------------------------------------------|
            And I   need  more   time


-------
Verse 2
-------

Gtr.1       E     G#        C#m         A
e|----------------4-4-4-4----4-4-4-4---------------------------|
B|----------0-0---4-4-4-4----5-5-5-5----2-2-2------------------|
G|----------1-1---5-5-5-5----6-6-6-6----2-2-2------------------|
D|----------2-2---6-6-6-6----6-6-6-6----2-2-2------------------|
A|----------2-2---6-6-6-6----4-4-4-4----0-0-0------------------|
E|----------------4-4-4-4----4-4-4-4---------------------------|

Gtr.2
e|-------------------------------------------------------------|
B|-------------------------------------------------------------|
G|-------------------------------------------------------------|
D|------------------------------------------2------------------|
A|------------------------------------2-2h4---4-2--------------|
E|-------------------------------------------------------------|

           She's got a sister

Gtr.1       E     G#        C#m         A
e|----------------4-4-4-4----4-4-4-4---------------------------|
B|----------0-0---4-4-4-4----5-5-5-5----2-2-2------------------|
G|----------1-1---5-5-5-5----6-6-6-6----2-2-2------------------|
D|----------2-2---6-6-6-6----6-6-6-6----2-2-2------------------|
A|----------2-2---6-6-6-6----4-4-4-4----0-0-0------------------|
E|----------------4-4-4-4----4-4-4-4---------------------------|

Gtr.2
e|-------------------------------------------------------------|
B|------------------------------------12-12-12-10-9------------|
G|------------------------------------13-13-13-11-9------------|
D|-------------------------------------------------------------|
A|-------------------------------------------------------------|
E|-------------------------------------------------------------|

            And God only knows how i've missed her


Gtr.1       E     G#        C#m         A
e|----------------4-4-4-4----4-4-4-4---------------------------|
B|----------0-0---4-4-4-4----5-5-5-5----2-2-2------------------|
G|----------1-1---5-5-5-5----6-6-6-6----2-2-2------------------|
D|----------2-2---6-6-6-6----6-6-6-6----2-2-2------------------|
A|----------2-2---6-6-6-6----4-4-4-4----0-0-0------------------|
E|----------------4-4-4-4----4-4-4-4---------------------------|

Gtr.2
e|-------------------------------------------------------------|
B|-------------------------------------------------------------|
G|-------------------------------------------------------------|
D|------------------------------------------2------------------|
A|------------------------------------2-2h4---4-2--------------|
E|-------------------------------------------------------------|

            And on the palm of her hand is a blister


Gtr.1       C     D       E
e|----------------2-2-2----------------------------------------|
B|----------1-1---3-3-3---0-0-0-0-0-0-0-0----------------------|
G|----------0-0---2-2-2---1-1-1-1-1-1-1-1----------------------|
D|----------2-2---0-0-0---2-2-2-2-2-2-2-2----------------------|
A|----------3-3-----------2-2-2-2-2-2-2-2----------------------|
E|-------------------------------------------------------------|

Gtr.2
e|-------------------------------------------------------------|
B|-------------------------------------------------------------|
G|---------9---11----13----13h14-----13------------------------|
D|-------------------------------------------------------------|
A|-------------------------------------------------------------|
E|-------------------------------------------------------------|
            And I   need  more   time


----------
Pre-Chorus
----------

Gtr.1&2

        A         Amaj7             A
e|-------------------------------------------------------------|
B|------2-2-2-2---2-2-2-2-2-2-2-2---2-2-2-2--------------------|
G|------2-2-2-2---1-1-1-1-1-1-1-1---2-2-2-2--------------------|
D|------2-2-2-2---2-2-2-2-2-2-2-2---2-2-2-2--------------------|
A|------0-0-0-0---0-0-0-0-0-0-0-0---0-0-0-0--------------------|
E|-------------------------------------------------------------|

            And I    want you    to know

Gtr.1&2
            Amaj7
e|-------------------------------------------------------------|
B|----------2-2-2-2-2-2-2-2------------------------------------|
G|----------1-1-1-1-1-1-1-1------------------------------------|
D|----------2-2-2-2-2-2-2-2------------------------------------|
A|----------0-0-0-0-0-0-0-0------------------------------------|
E|-------------------------------------------------------------|

    I've got my mind made up now

Gtr.1&2
        A          C#m        E
e|-----------------4-4-4-4-------------------------------------|
B|------2-2-2-2----5-5-5-5----0-0-0-0-0-0-0-0------------------|
G|------2-2-2-2----6-6-6-6----1-1-1-1-1-1-1-1------------------|
D|------2-2-2-2----6-6-6-6----2-2-2-2-2-2-2-2------------------|
A|------0-0-0-0----4-4-4-4----2-2-2-2-2-2-2-2------------------|
E|-----------------4-4-4-4-------------------------------------|

         But I      need    more   time

Gtr.1&2

        A         Amaj7             A
e|-------------------------------------------------------------|
B|------2-2-2-2---2-2-2-2-2-2-2-2---2-2-2-2--------------------|
G|------2-2-2-2---1-1-1-1-1-1-1-1---2-2-2-2--------------------|
D|------2-2-2-2---2-2-2-2-2-2-2-2---2-2-2-2--------------------|
A|------0-0-0-0---0-0-0-0-0-0-0-0---0-0-0-0--------------------|
E|-------------------------------------------------------------|

            And I    want you    to say

Gtr.1&2
            Amaj7
e|-------------------------------------------------------------|
B|----------2-2-2-2-2-2-2-2------------------------------------|
G|----------1-1-1-1-1-1-1-1------------------------------------|
D|----------2-2-2-2-2-2-2-2------------------------------------|
A|----------0-0-0-0-0-0-0-0------------------------------------|
E|-------------------------------------------------------------|

    Do you know what I'm saying?


Gtr.1&2
        A          C#m
e|-----------------4-4-4-4-------------------------------------|
B|------2-2-2-2----5-5-5-5-------------------------------------|
G|------2-2-2-2----6-6-6-6-------------------------------------|
D|------2-2-2-2----6-6-6-6-------------------------------------|
A|------0-0-0-0----4-4-4-4-------------------------------------|
E|-----------------4-4-4-4-------------------------------------|

     But I need more


------
Chorus
------


Gtr.1&2
       E
e|-------------------------------------------------------------|
B|-----0-0-0-00-0-00-0-----------------------------------------|
G|-----1-1-1-11-1-11-1-----------------------------------------|
D|-----2-2-2-22-2-22-2-----------------------------------------|
A|-----2-2-2-22-2-22-2-----------------------------------------|
E|-------------------------------------------------------------|

      'Cause i'll be you and you'll be me

Gtr.1&2
       E7
e|-------------------------------------------------------------|
B|-----3-3-3-33-3-33-3-----------------------------------------|
G|-----1-1-1-11-1-11-1-----------------------------------------|
D|-----2-2-2-22-2-22-2-----------------------------------------|
A|-----2-2-2-22-2-22-2-----------------------------------------|
E|-------------------------------------------------------------|

      There's lots and lots for us to see

Gtr.1&2

e|-----0-0-0-00-0-00-0-----------------------------------------|
B|-----0-0-0-00-0-00-0-----------------------------------------|
G|-----2-2-2-22-2-22-2-----------------------------------------|
D|-----4-4-4-44-4-44-4-----------------------------------------|
A|-------------------------------------------------------------|
E|-------------------------------------------------------------|

      There's lots and lots for us to do

Gtr.1&2
       B
e|-----2-2-2-22-2-22-2-----------------------------------------|
B|-----4-4-4-44-4-44-4-----------------------------------------|
G|-----4-4-4-44-4-44-4-----------------------------------------|
D|-----4-4-4-44-4-44-4-----------------------------------------|
A|-----2-2-2-22-2-22-2-----------------------------------------|
E|-------------------------------------------------------------|

      She is electric, can I be electric too?


----
Solo
----

Gtr.1       E     G#        C#m         A
e|----------------4-4-4-4----4-4-4-4---------------------------|
B|----------0-0---4-4-4-4----5-5-5-5----2-2-2------------------|
G|----------1-1---5-5-5-5----6-6-6-6----2-2-2------------------|
D|----------2-2---6-6-6-6----6-6-6-6----2-2-2------------------|
A|----------2-2---6-6-6-6----4-4-4-4----0-0-0------------------|
E|----------------4-4-4-4----4-4-4-4---------------------------|

Gtr.2
e|-------------------------------------------------------------|
B|-------------------------------------------------------------|
G|------------11b13-------13-11-9------------------------------|
D|-------------------------------------------------------------|
A|-------------------------------------------------------------|
E|-------------------------------------------------------------|


Gtr.1       E     G#        C#m         A
e|----------------4-4-4-4----4-4-4-4---------------------------|
B|----------0-0---4-4-4-4----5-5-5-5----2-2-2------------------|
G|----------1-1---5-5-5-5----6-6-6-6----2-2-2------------------|
D|----------2-2---6-6-6-6----6-6-6-6----2-2-2------------------|
A|----------2-2---6-6-6-6----4-4-4-4----0-0-0------------------|
E|----------------4-4-4-4----4-4-4-4---------------------------|

Gtr.2
e|-------------------9-----------------------------------------|
B|---------------12----12--------------------------------------|
G|---------9h11-------------11--9------------------------------|
D|-------------------------------------------------------------|
A|-------------------------------------------------------------|
E|-------------------------------------------------------------|


Gtr.1       E     G#        C#m         A
e|----------------4-4-4-4----4-4-4-4---------------------------|
B|----------0-0---4-4-4-4----5-5-5-5----2-2-2------------------|
G|----------1-1---5-5-5-5----6-6-6-6----2-2-2------------------|
D|----------2-2---6-6-6-6----6-6-6-6----2-2-2------------------|
A|----------2-2---6-6-6-6----4-4-4-4----0-0-0------------------|
E|----------------4-4-4-4----4-4-4-4---------------------------|

Gtr.2
e|-------------------------------------------------------------|
B|---------12-12-12-12-12-11-10-9------------------------------|
G|---------13-13-13-13-13-12-11-9------------------------------|
D|-------------------------------------------------------------|
A|-------------------------------------------------------------|
E|-------------------------------------------------------------|


Gtr.1       C     D       E
e|----------------2-2-2----------------------------------------|
B|----------1-1---3-3-3---0-0-0-0-0-0-0-0----------------------|
G|----------0-0---2-2-2---1-1-1-1-1-1-1-1----------------------|
D|----------2-2---0-0-0---2-2-2-2-2-2-2-2----------------------|
A|----------3-3-----------2-2-2-2-2-2-2-2----------------------|
E|-------------------------------------------------------------|

e|-------------------------------------------------------------|
B|-------------------------------10-9-10\\\\-------------------|
G|----------11b13--11-9-11-9-----11-9-11\\\\-------------------|
D|-------------------------------------------------------------|
A|-------------------------------------------------------------|
E|-------------------------------------------------------------|


-------
Verse 3
-------


Gtr.1       E     G#        C#m         A
e|----------------4-4-4-4----4-4-4-4---------------------------|
B|----------0-0---4-4-4-4----5-5-5-5----2-2-2------------------|
G|----------1-1---5-5-5-5----6-6-6-6----2-2-2------------------|
D|----------2-2---6-6-6-6----6-6-6-6----2-2-2------------------|
A|----------2-2---6-6-6-6----4-4-4-4----0-0-0------------------|
E|----------------4-4-4-4----4-4-4-4---------------------------|

Gtr.2
e|-------------------------------------------------------------|
B|-------------------------------------------------------------|
G|-------------------------------11b13--11-9-11-9--------------|
D|-------------------------------------------------------------|
A|-------------------------------------------------------------|
E|-------------------------------------------------------------|

            She's got a brother


Gtr.1       E     G#        C#m         A
e|----------------4-4-4-4----4-4-4-4---------------------------|
B|----------0-0---4-4-4-4----5-5-5-5----2-2-2------------------|
G|----------1-1---5-5-5-5----6-6-6-6----2-2-2------------------|
D|----------2-2---6-6-6-6----6-6-6-6----2-2-2------------------|
A|----------2-2---6-6-6-6----4-4-4-4----0-0-0------------------|
E|----------------4-4-4-4----4-4-4-4---------------------------|

Gtr.2
e|-------------------------------------------------------------|
B|-------------------------------------------------------------|
G|-----------------------------------------9--11-9-------------|
D|------------------------------------9h11---------------------|
A|-------------------------------------------------------------|
E|-------------------------------------------------------------|

            We don't get on with one another


Gtr.1       E     G#        C#m         A
e|----------------4-4-4-4----4-4-4-4---------------------------|
B|----------0-0---4-4-4-4----5-5-5-5----2-2-2------------------|
G|----------1-1---5-5-5-5----6-6-6-6----2-2-2------------------|
D|----------2-2---6-6-6-6----6-6-6-6----2-2-2------------------|
A|----------2-2---6-6-6-6----4-4-4-4----0-0-0------------------|
E|----------------4-4-4-4----4-4-4-4---------------------------|

Gtr.2
e|-------------------------------------------------------------|
B|-------------------------------------------------------------|
G|------------------------------------11b13--9-11-9------------|
D|-------------------------------------------------------------|
A|-------------------------------------------------------------|
E|-------------------------------------------------------------|

            But I quite fancy her mother


Gtr.1       C     D       E
e|----------------2-2-2----------------------------------------|
B|----------1-1---3-3-3---0-0-0-0-0-0-0-0----------------------|
G|----------0-0---2-2-2---1-1-1-1-1-1-1-1----------------------|
D|----------2-2---0-0-0---2-2-2-2-2-2-2-2----------------------|
A|----------3-3-----------2-2-2-2-2-2-2-2----------------------|
E|-------------------------------------------------------------|

Gtr.2
e|------------------------------------------------9------------|
B|---------------------------------------9-12--12---12---------|
G|---------9-11s13-11-9-11---9-11-9---11-----------------------|
D|-------------------------------------------------------------|
A|-------------------------------------------------------------|
E|-------------------------------------------------------------|
            And I think that she likes me


-------
Verse 4
-------


Gtr.1       E     G#        C#m         A
e|----------------4-4-4-4----4-4-4-4---------------------------|
B|----------0-0---4-4-4-4----5-5-5-5----2-2-2------------------|
G|----------1-1---5-5-5-5----6-6-6-6----2-2-2------------------|
D|----------2-2---6-6-6-6----6-6-6-6----2-2-2------------------|
A|----------2-2---6-6-6-6----4-4-4-4----0-0-0------------------|
E|----------------4-4-4-4----4-4-4-4---------------------------|

Gtr.2
e|-----------------------------------------9-12-14-12----------|
B|--------------------------------------12---------------------|
G|-------------------------------------------------------------|
D|-------------------------------------------------------------|
A|-------------------------------------------------------------|
E|-------------------------------------------------------------|

            She's got a cousin


Gtr.1       E     G#        C#m         A
e|----------------4-4-4-4----4-4-4-4---------------------------|
B|----------0-0---4-4-4-4----5-5-5-5----2-2-2------------------|
G|----------1-1---5-5-5-5----6-6-6-6----2-2-2------------------|
D|----------2-2---6-6-6-6----6-6-6-6----2-2-2------------------|
A|----------2-2---6-6-6-6----4-4-4-4----0-0-0------------------|
E|----------------4-4-4-4----4-4-4-4---------------------------|

Gtr.2
e|--------------------------------------14b-12-9----9----------|
B|-----------------------------------------------12---12-------|
G|-------------------------------------------------------------|
D|-------------------------------------------------------------|
A|-------------------------------------------------------------|
E|-------------------------------------------------------------|

            In fact she's got 'bout a dozen


Gtr.1       E     G#        C#m         A
e|----------------4-4-4-4----4-4-4-4---------------------------|
B|----------0-0---4-4-4-4----5-5-5-5----2-2-2------------------|
G|----------1-1---5-5-5-5----6-6-6-6----2-2-2------------------|
D|----------2-2---6-6-6-6----6-6-6-6----2-2-2------------------|
A|----------2-2---6-6-6-6----4-4-4-4----0-0-0------------------|
E|----------------4-4-4-4----4-4-4-4---------------------------|

Gtr.2
e|-------------------------------------------------------------|
B|-------------------------------------------------------------|
G|------------------------------------11b13--9-11-9------------|
D|-------------------------------------------------------------|
A|-------------------------------------------------------------|
E|-------------------------------------------------------------|

            She's got one in the oven


Gtr.1       C     D       E
e|----------------2-2-2----------------------------------------|
B|----------1-1---3-3-3---0-0-0-0-0-0-0-0----------------------|
G|----------0-0---2-2-2---1-1-1-1-1-1-1-1----------------------|
D|----------2-2---0-0-0---2-2-2-2-2-2-2-2----------------------|
A|----------3-3-----------2-2-2-2-2-2-2-2----------------------|
E|-------------------------------------------------------------|

Gtr.2
e|-------------------------------------------------------------|
B|-------------------------------------------------------------|
G|---------9-11s13-11-9-11---9-11-9----------------------------|
D|-------------------------------------------------------------|
A|-------------------------------------------------------------|
E|-------------------------------------------------------------|
            But its nothing to do with me


----------
Pre-Chorus
----------


Gtr.1

        A         Amaj7             A
e|-------------------------------------------------------------|
B|------2-2-2-2---2-2-2-2-2-2-2-2---2-2-2-2--------------------|
G|------2-2-2-2---1-1-1-1-1-1-1-1---2-2-2-2--------------------|
D|------2-2-2-2---2-2-2-2-2-2-2-2---2-2-2-2--------------------|
A|------0-0-0-0---0-0-0-0-0-0-0-0---0-0-0-0--------------------|
E|-------------------------------------------------------------|

            And I    want you    to know

Gtr.1
            Amaj7
e|-------------------------------------------------------------|
B|----------2-2-2-2-2-2-2-2------------------------------------|
G|----------1-1-1-1-1-1-1-1------------------------------------|
D|----------2-2-2-2-2-2-2-2------------------------------------|
A|----------0-0-0-0-0-0-0-0------------------------------------|
E|-------------------------------------------------------------|

    I've got my mind made up now

Gtr.1
        A          C#m        E
e|-----------------4-4-4-4-------------------------------------|
B|------2-2-2-2----5-5-5-5----0-0-0-0-0-0-0-0------------------|
G|------2-2-2-2----6-6-6-6----1-1-1-1-1-1-1-1------------------|
D|------2-2-2-2----6-6-6-6----2-2-2-2-2-2-2-2------------------|
A|------0-0-0-0----4-4-4-4----2-2-2-2-2-2-2-2------------------|
E|-----------------4-4-4-4-------------------------------------|

Gtr.2

e|-------------------------------------------------------------|
B|-------------------------------------------------------------|
G|----------11b13r11-9-11-9---11b13r11-9-11-9-11s13-9----------|
D|-------------------------------------------------------------|
A|-------------------------------------------------------------|
E|-------------------------------------------------------------|

     But I need more time

Gtr.1

        A         Amaj7             A
e|-------------------------------------------------------------|
B|------2-2-2-2---2-2-2-2-2-2-2-2---2-2-2-2--------------------|
G|------2-2-2-2---1-1-1-1-1-1-1-1---2-2-2-2--------------------|
D|------2-2-2-2---2-2-2-2-2-2-2-2---2-2-2-2--------------------|
A|------0-0-0-0---0-0-0-0-0-0-0-0---0-0-0-0--------------------|
E|-------------------------------------------------------------|

            And I    want you    to say

Gtr.1
            Amaj7
e|-------------------------------------------------------------|
B|----------2-2-2-2-2-2-2-2------------------------------------|
G|----------1-1-1-1-1-1-1-1------------------------------------|
D|----------2-2-2-2-2-2-2-2------------------------------------|
A|----------0-0-0-0-0-0-0-0------------------------------------|
E|-------------------------------------------------------------|

    Do you know what I'm saying?


Gtr.1
        A          C#m
e|-----------------4-4-4-4-------------------------------------|
B|------2-2-2-2----5-5-5-5-------------------------------------|
G|------2-2-2-2----6-6-6-6-------------------------------------|
D|------2-2-2-2----6-6-6-6-------------------------------------|
A|------0-0-0-0----4-4-4-4-------------------------------------|
E|-----------------4-4-4-4-------------------------------------|

     But I need more


------
Chorus
------

Gtr.1
       E
e|-------------------------------------------------------------|
B|-----0-0-0-00-0-00-0-----------------------------------------|
G|-----1-1-1-11-1-11-1-----------------------------------------|
D|-----2-2-2-22-2-22-2-----------------------------------------|
A|-----2-2-2-22-2-22-2-----------------------------------------|
E|-------------------------------------------------------------|

Gtr.2
e|-------------------------------------------------------------|
B|-------------------------------------------------------------|
G|-------11b13---------9---------------------------------------|
D|-------------------------------------------------------------|
A|-------------------------------------------------------------|
E|-------------------------------------------------------------|

      'Cause i'll be you and you'll be me

Gtr.1
       E7
e|-------------------------------------------------------------|
B|-----3-3-3-33-3-33-3-----------------------------------------|
G|-----1-1-1-11-1-11-1-----------------------------------------|
D|-----2-2-2-22-2-22-2-----------------------------------------|
A|-----2-2-2-22-2-22-2-----------------------------------------|
E|-------------------------------------------------------------|

Gtr.2
e|-------------------------------------------------------------|
B|-------------------------------------------------------------|
G|-------11b13---------9---------------------------------------|
D|-------------------------------------------------------------|
A|-------------------------------------------------------------|
E|-------------------------------------------------------------|

      There's lots and lots for us to see

Gtr.1

e|-----0-0-0-00-0-00-0-----------------------------------------|
B|-----0-0-0-00-0-00-0-----------------------------------------|
G|-----2-2-2-22-2-22-2-----------------------------------------|
D|-----4-4-4-44-4-44-4-----------------------------------------|
A|-------------------------------------------------------------|
E|-------------------------------------------------------------|

Gtr.2
e|-------------------------------------------------------------|
B|-------------------------------------------------------------|
G|-------11b13---------9---------------------------------------|
D|-------------------------------------------------------------|
A|-------------------------------------------------------------|
E|-------------------------------------------------------------|

      There's lots and lots for us to do

Gtr.1
       B
e|-----2-2-2-22-2-22-2-----------------------------------------|
B|-----4-4-4-44-4-44-4-----------------------------------------|
G|-----4-4-4-44-4-44-4-----------------------------------------|
D|-----4-4-4-44-4-44-4-----------------------------------------|
A|-----2-2-2-22-2-22-2-----------------------------------------|
E|-------------------------------------------------------------|

Gtr.2
e|-------------------------------------------------------------|
B|-------------------------------------------------------------|
G|-------11b13---------9---------------------------------------|
D|-------------------------------------------------------------|
A|-------------------------------------------------------------|
E|-------------------------------------------------------------|

      She is electric, can I be electric too?


-----
Outro
-----

Gtr.1       C     D       E
e|----------------2-2-2----------------------------------------|
B|----------1-1---3-3-3---0-0-0-0-0-0-0-0----------------------|
G|----------0-0---2-2-2---1-1-1-1-1-1-1-1----------------------|
D|----------2-2---0-0-0---2-2-2-2-2-2-2-2----------------------|
A|----------3-3-----------2-2-2-2-2-2-2-2----------------------|
E|-------------------------------------------------------------|

Gtr.2                                                             repeat this part until 
end

e|-------------------------------------------------------------|
B|-------------------------------------------------------------|
G|------------11b13-11-9-11-9-11s13-9--------------------------|
D|-------------------------------------------------------------|
A|-------------------------------------------------------------|
E|-------------------------------------------------------------|

            Can I be electric too?

b=bend
r=release
h=hammer on
p=pull off
s=slide
\=slide downwards
/=slide upwards

I would appreciate it if you rated this tab well, it took me a long time to work out the 
parts and tab it all out.





Comments


Popular Oasis tabs & chords
Champagne Supernova Bass Tabs
Im Only Sleeping Chords
Lyla 7 Chords
Don Look Back In Anger Tabs
Fade In-Out Tabs
Listen Up 1 Tabs
Live Forever 1 Tabs
Oasisal Around The World Tabs
Stand By Me Tabs
Cum Along Feel The Noize Ukulele


Song lyrics



↑ Back to top | Tablatures and chords are parodies/interpretations of the original songs. You may use it for private study, scholarship, research or language learning purposes only
© 2014 AZChords.com Contact us | Privacy policy | DMCA | Add/correct tabs | Request tabs | Top 50 tabs