>
 >
Shes Electric

Shes Electric Bass Tabs

Oasis - Shes Electric chords, tabs, tablatures, lyrics

Guitar lessons | Add/correct | Request | Top 50 tabs Artists:  A B C D E F G H I J K L M N O P Q R S T U V W X Y Z 0-9

Shes Electric Bass Tabs – Oasis

CD, Sheet music, Poster

Do you like Shes Electric? Share with your friends now
Bass TabsBass Tabs v2
She's Electric from the album (Whats the Story) Morning Glory

G---------------|
D---------------|
A---------------|
E-0-0-0-0-0-0-0-|

Intro 2 and Verse and Guitar Solos:
 "She's..."                   "She's..."          "And.."
G-------------------------------------------------------------|
D-------------------------------------------------------------|
A---------3-3-----------------3-3-----------------3-3---------|
E-0-0-4-4-----5-5-5-5-0-0-4-4-----5-5-5-5-0-0-4-4-----5-5-5-5-|

  "Need" "More" Time"
G--------------------|
D--------------------|
A--------------------|
E-3-------2------0---|

Pre-Chorus:
  "And I want..."
G---------------------|
D---------------------|
A---------------------|
E-5-5-5-5-5-4-4-4-4-4-|

Chorus:
 "And I'll be..."
G---------------------|
D---------------------|
A---------------------|
E-0-0-0-0-0-0-0-0-0-0-|

"She's Electric..."
G---------------------|
D---------------------|
A---------------------|
E-2-2-2-2-2-2-2-2-2-2-|

"..too"

G----
D----
A----
E-0--


Intro(x?)

Verse (x3)

Prechorus (x1)

Chorus (x1)





Comments


Popular Oasis tabs & chords
Fade In-out Bass Tabs
Be Here Now Chords
Im Outta Time 4 Chords
Cigarettes In Hell 1 Tabs
Cigerettes And Alcohol Tabs
Dont Look Back In Anger 3 Tabs
Gas Panic! Tabs
Going Nowhere Tabs
Sad Song Tabs
If Theres A God Ukulele


Song lyrics



↑ Back to top | Tablatures and chords are parodies/interpretations of the original songs. You may use it for private study, scholarship, research or language learning purposes only
© 2014 AZChords.com Contact us | Privacy policy | DMCA | Add/correct tabs | Request tabs | Top 50 tabs