>
 >
Shes Electric 3

Shes Electric 3 Guitar Tabs

Oasis - Shes Electric 3 chords, tabs, tablatures, lyrics

Guitar lessons | Add/correct | Request | Top 50 tabs Artists:  A B C D E F G H I J K L M N O P Q R S T U V W X Y Z 0-9

Shes Electric 3 Guitar Tabs – Oasis

CD, Sheet music, Poster

Do you like Shes Electric 3? Share with your friends now
ChordsTabs
Key of E major
tempo 4/4, 130 bpm


  INTRO

 Gtr. 1: Arthur's rhythm guitar
    F#                                        F
|| -2----2----2----2---- ||  |-2----2----2----1---|
|| -2----2----2----2---- ||  |-2----2----2----1---|
||O-3----3----3----3----O||  |-3----3----3----2---|
||O-4----4----4----4----O||  |-4----4----4----3---|
|| -4----4----4----4---- ||  |-4----4----4----3---|
|| -2----2----2----2---- ||x3|-2----2----2----1---|
|
|Gtr. 2: Noel's lead guitar
|   let ring
|| ----2----2----2----2- ||  |----2----2----2-2\1-|
|| -2h4--2h4--2h4--2h4-- ||  |-2h4--2h4--2h4------|
||O-3----3----3----3----O||  |-3----3----3--------|
||O---------------------O||  |--------------------|
|| --------------------- ||  |--------------------|
|| --------------------- ||x3|--------------------|


    E     G#m     C#m    A                C       D          E
|| -0--0--4--4--|-4--4---5----5---- ||  |-0---0---2---2----|-0--0--0--0-|
|| -0--0--4--4--|-5--5---5----5---- ||  |-1---1---3---3----|-0--0--0--0-|
||O-1--1--5--5--|-6--6---6----6----O||  |-0---0---2---2----|-1--1--1--1-|
||O-2--2--6--6--|-6--6---7----7----O||  |-2---2---0---0----|-2--2--2--2-|
|| -2--2--6--6--|-4--4---7----7---- ||  |-3---3------------|-2--2--2--2-|
|| -0--0--4--4--|--------5----5---- ||X3|------------------|-0--0--0--0-|
|
|
|| -------------|------------------ ||  |-0-0------2-2-----|-4---4-5--4-|
|| -------------|------------------ ||  |-1---1----3---3---|-5-----5--5-|
||O-------------|------------------O||  |-0-----0--2-----2-|-4--4-------|
||O-------------|------------2-----O||  |-2--------0-------|------------|
|| -------------|------2-2h4---4-2- ||  |-3----------------|------------|
|| -------------|------------------ ||X3|------------------|------------|



  VERSE I

                              ___________________________    _________
                             |1.                            |2.
    E  G#m    C#m  A           E  G#m    C#m    A             C        D         E
|| ---------|----------------|---------|------------------ ||-0-0------2-2-----|-4---4-5--4-|
|| ---------|----------------|---------|-12-12--12--10--9- ||-1---1----3---3---|-5-----5--5-|
||O---------|----------------|---------|-13-13--13--11--9-O||-0-----0--2-----2-|-4--4-------|
||O---------|----------2-----|---------|------------------O||-2--------0-------|------------|
|| ---------|----2-2h4---4-2-|---------|------------------ ||-3----------------|------------|
|| ---------|----------------|---------|------------------ ||------------------|------------|


E    G#m C#m    A            E      G#m       C#m      A
She's   electric, she's in a family full of excentrics
      E                G#m     C#m    A      C    D    E
She's done things I've never expected, and I need more time



  VERSE II
                              ___________________________    _________
                             |1.                            |2.
    E  G#m    C#m  A           E  G#m    C#m    A             C        D         E
|| ---------|----------------|---------|------------------ ||-0-0------2-2-----|-4---4-5--4-|
|| ---------|----------------|---------|-12-12--12--10--9- ||-1---1----3---3---|-5-----5--5-|
||O---------|----------------|---------|-13-13--13--11--9-O||-0-----0--2-----2-|-4--4-------|
||O---------|----------2-----|---------|------------------O||-2--------0-------|------------|
|| ---------|----2-2h4---4-2-|---------|------------------ ||-3----------------|------------|
|| ---------|----------------|---------|------------------ ||------------------|------------|


E   G#m     C#m   A     E        G#m         C#m       A
She's got a sister, and God only knows how I missed her
           E           G#m         C#m     A      C    D    E
And on the palm of her hand it's a blister, and I need more time



  PRE-CHORUS

                    ________________  ____
                   |1, 2.            |3.
    A               Amaj7             C#m             E                        E7
|| -0---0---0-0-0-|-0---0---0-0-0- ||-4---4---4-4-4-|-0-----0-----0---0---0--|-0--0--0-0-0-|
|| -2---2---2-2-2-|-2---2---2-2-2- ||-5---5---5-5-5-|-0-----0-----0---0---0--|-0--0--0-0-0-|
||O-2---2---2-2-2-|-1---1---1-1-1-O||-6---6---6-6-6-|-1-----1-----1---1---1--|-1--1--1-1-1-|
||O-2---2---2-2-2-|-2---2---2-2-2-O||-6---6---6-6-6-|-2-----2-----2---2---2--|-0--0--0-0-0-|
|| -0---0---0-0-0-|-0---0---0-0-0- ||-4---4---4-4-4-|-2-----2-----2---2---2--|-2--2--2-2-2-|
|| ---------------|--------------- ||---------------|-0-----0-----0---0---0--|-0--0--0-0-0-|
|
|   let ring
|| --------0------|--------0------ ||---------------|------------------------|-------------|
|| ---2-------2---|---2-------2--- ||-------5-------|------------------------|--9--7-------|
||O-----2-------2-|-----1-------1-O||----6-----6----|------------------------|--------9--7-|
||O---------------|---------------O||---6--------6--|-9--9-11--9-12--9-11--9-|-------------|
|| -0-------------|-0------------- ||-4-------------|-7--7-7---7-7---7-7---7-|-7--7--7--7--|
|| ---------------|--------------- ||---------------|------------------------|-------------|


A      Amaj7       A                Amaj7            A
 And I want you to know I've got my mind made-up now
      C#m       E    E7
But I need more time

                    ________________  ____
                   |1, 2.            |3.
    A               Amaj7             C#m
|| -0---0---0-0-0-|-0---0---0-0-0- ||-4---4---4-4-4-|
|| -2---2---2-2-2-|-2---2---2-2-2- ||-5---5---5-5-5-|
||O-2---2---2-2-2-|-1---1---1-1-1-O||-6---6---6-6-6-|
||O-2---2---2-2-2-|-2---2---2-2-2-O||-6---6---6-6-6-|
|| -0---0---0-0-0-|-0---0---0-0-0- ||-4---4---4-4-4-|
|| ---------------|--------------- ||---------------|
|
|   let ring
|| --------0------|--------0------ ||---------------|
|| ---2-------2---|---2-------2--- ||-------5-------|
||O-----2-------2-|-----1-------1-O||----6-----6----|
||O---------------|---------------O||---6--------6--|
|| -0-------------|-0------------- ||-4-------------|
|| ---------------|--------------- ||---------------|


A      Amaj7       A                Amaj7            A
 And I want you to say, do you know what I'm saying?
      C#m
But I need more



  CHORUS

       E
'Cause I'll be you and you'll be me
        E7
There's lots and lots for us to see
F#
Lots and lots for us to do
B
She's electric, can I be electric too?



  GUITAR SOLO

  E      G#m       C#m        A         E        G#m        C#m  A
|----------------|--------------------|-------------------|--------|
|----------------|--------------------|----12--14--12-----|--------|
|-11b13-b13-r11--|-(11)-9----------11///13-------------11-|-9vvv---|
|----------------|--------------------|-------------------|--------|
|----------------|--------------------|-------------------|--------|
|----------------|--------------------|-------------------|--------|


  E             G#m           C#m    A         C               D            E
|---------------------------|----------------|----------------------------|----------------|
|-12--12-12--12-12--11---10-|-9--------------|--------------------------9-|-10--9-10--9----|
|-13--13-13--13-13--12---11-|-9--------11b13-|-(b13)--11b13b11-9-11--9--9-|-11--9-11--9----|
|---------------------------|----------------|----------------------------|----------------|
|---------------------------|----------------|----------------------------|----------------|
|---------------------------|----------------|----------------------------|----------------|



  VERSE III

  E  G#m   C#m  A               E  G#m   C#m   A
|--------|--------------------|--------|--------------------|
|--------|--------------------|--------|--------------------|
|--------|----11b13-11-9-11-9-|--------|---------9-11-9-----|
|--------|--------------------|--------|----9h11------------|
|--------|--------------------|--------|--------------------|
|--------|--------------------|--------|--------------------|


  E  G#m   C#m  A              C        D          E
|--------|-------------------|-------------------|---------9----|
|--------|-------------------|-------------------|----9-12---12-|
|--------|----11b13--9-11-9--|-9-11/13-11-9-11-9-|-11-----------|
|--------|-------------------|-------------------|--------------|
|--------|-------------------|-------------------|--------------|
|--------|-------------------|-------------------|--------------|


E    G#m     C#m     A   E         G#m            C#m    A
She's  got a brother, we don't get well with one another
    E       G#m       C#m    A      C          D         E
But I quite fancy her mother, and I think that she likes me



  VERSE IV

  E G#m   C#m       A              E G#m   C#m
|-------|-----------9-12-14-12vvv|-------|------r14-12-9----9----|
|-------|-----10h12--------------|-------|---------------12---12-|
|-------|------------------------|-------|-----------------------|
|-------|------------------------|-------|-----------------------|
|-------|------------------------|-------|-----------------------|
|-------|------------------------|-------|-----------------------|


 E G#m   C#m         A          C            D              E
|------|----------------------|---------------------------|--------|
|------|----------------------|---------------------------|--------|
|------|-----11b13r11-9-11-9vv|-9-11/13--11-9-11---9-11-9-|-(9vvv)-|
|------|----------------------|---------------------------|--------|
|------|----------------------|---------------------------|--------|
|------|----------------------|---------------------------|--------|


E    G#m     C#m    A   E          G#m         C#m   A
She's  got a cousin, in fact she's got 'bout a dozen
E         G#m        C#m  A         C          D       E
She's got one in the oven, but it's nothing to do with me


  PRE-CHORUS

                    ________________  ____
                   |1, 2.            |3.
    A               Amaj7             C#m             E                        E7
|| -0---0---0-0-0-|-0---0---0-0-0- ||-4---4---4-4-4-|-0-----0-----0---0---0--|-0--0--0-0-0-|
|| -2---2---2-2-2-|-2---2---2-2-2- ||-5---5---5-5-5-|-0-----0-----0---0---0--|-0--0--0-0-0-|
||O-2---2---2-2-2-|-1---1---1-1-1-O||-6---6---6-6-6-|-1-----1-----1---1---1--|-1--1--1-1-1-|
||O-2---2---2-2-2-|-2---2---2-2-2-O||-6---6---6-6-6-|-2-----2-----2---2---2--|-0--0--0-0-0-|
|| -0---0---0-0-0-|-0---0---0-0-0- ||-4---4---4-4-4-|-2-----2-----2---2---2--|-2--2--2-2-2-|
|| ---------------|--------------- ||---------------|-0-----0-----0---0---0--|-0--0--0-0-0-|
|
|   let ring
|| --------0------|--------0------ ||---------------|------------------------|-------------|
|| ---2-------2---|---2-------2--- ||-------5-------|------------------------|--9--7-------|
||O-----2-------2-|-----1-------1-O||----6-----6----|------------------------|--------9--7-|
||O---------------|---------------O||---6--------6--|-9--9-11--9-12--9-11--9-|-------------|
|| -0-------------|-0------------- ||-4-------------|-7--7-7---7-7---7-7---7-|-7--7--7--7--|
|| ---------------|--------------- ||---------------|------------------------|-------------|


A      Amaj7       A                Amaj7            A
 And I want you to know I've got my mind made-up now
      C#m       E    E7
But I need more time

                    ________________  ____
                   |1, 2.            |3.
    A               Amaj7             C#m
|| -0---0---0-0-0-|-0---0---0-0-0- ||-4---4---4-4-4-|
|| -2---2---2-2-2-|-2---2---2-2-2- ||-5---5---5-5-5-|
||O-2---2---2-2-2-|-1---1---1-1-1-O||-6---6---6-6-6-|
||O-2---2---2-2-2-|-2---2---2-2-2-O||-6---6---6-6-6-|
|| -0---0---0-0-0-|-0---0---0-0-0- ||-4---4---4-4-4-|
|| ---------------|--------------- ||---------------|
|
|   let ring
|| --------0------|--------0------ ||---------------|
|| ---2-------2---|---2-------2--- ||-------5-------|
||O-----2-------2-|-----1-------1-O||----6-----6----|
||O---------------|---------------O||---6--------6--|
|| -0-------------|-0------------- ||-4-------------|
|| ---------------|--------------- ||---------------|


A      Amaj7       A                Amaj7            A
 And I want you to say, do you know what I'm saying?
      C#m
But I need more




  CHORUS

  E       E7      F#                                               B
|---|---|---|---|-----------------------------------|------------|---|------------|
|---|---|---|---|-----------------------------------|------------|---|------------|
|---|---|---|---|-11b13r11-9-11-9--11b13r11-9-11-9--|-11/13-9vv--|---|-9-11-11b13-|
|---|---|---|---|-----------------------------------|------------|---|------------|
|---|---|---|---|-----------------------------------|------------|---|------------|
|---|---|---|---|-----------------------------------|------------|---|------------|


       E
'Cause I'll be you and you'll be me
        E7
There's lots and lots for us to see
F#
Lots and lots for us to do
B
She's electric, can I be electric too?



  OUTRO

    C               D           E                     C                 D          E
|| ---------------------------|---------------------|----------------------------|------------- ||
|| ---------------------------|----------12---12----|----------------------------|------------- ||
||O-11b13-11b13r11-9-11--9--9-|-(9)-11/13--------13\\\11b13--11b13r11-9-11--9--9-|-(9vvv)-9-11-O||
||O---------------------------|---------------------|----------------------------|-------------O||
|| ---------------------------|---------------------|----------------------------|------------- ||
|| ---------------------------|---------------------|----------------------------|------------- ||
   this is the basic line, you can improvise in the E major scale

C  D  E  C  D

    E             C     D E C D 
Can I be electric too?
    E             C     D E C D
Can I be electric too?
    E             C     D E C D
Can I be electric too?
C          D       E 
Aaaaaaaah! Aaaaah! Ah!





Comments


Popular Oasis tabs & chords
Cum On Feel The Noize Bass Tabs
Boy With The Blues 2 Chords
Dont Look Back In Anger 4 Chords
Flashbax Chords
Going Nowhere Chords
Little By Little 5 Chords
She Is Love 1 Chords
All Around The World 1 Tabs
Cum On Feel The Noize Tabs
Sadly 1 Tabs


Song lyrics



↑ Back to top | Tablatures and chords are parodies/interpretations of the original songs. You may use it for private study, scholarship, research or language learning purposes only
© 2014 AZChords.com Contact us | Privacy policy | DMCA | Add/correct tabs | Request tabs | Top 50 tabs