» » »

Oasis, She Is Love Tabs (ver.3)

Artists:  A B C D E F G H I J K L M N O P Q R S T U V W X Y Z # 

She Is Love Tabs (ver.3)

Oasis Tabs
 Rating:
4/5 (4 votes)
She Is Love lessons Tabs too difficult? Try these video lessons and learn fast
1
                She Is Love by Oasis

  
  Standard tuning

  
  G: E|------3---------|      Caad9: E|-------3--------|
     B|------3---------|             B|-------3--------|
     G|------0---------|             G|-------0--------|
     D|------0---------|             D|-------2--------|
     A|------2---------|             A| ------3--------|
     E|------3---------|             E|-------X--------|

  F: E|------3---------|
     B|------3---------|
     G|------2---------|
     D|------3---------|
     A|------X---------|
     E|------X---------|

  
  
  
  Here goes........


  Intro:

  G Caad9 F Caad9

  Verse:

  G                            Caad9           F               Caad9
  Oh when the sunshine beckons to ya, and your wings begin to unfold,

  G                              Caad9                    F                Caad9      
  the thoughts you bring and the songs you sing are gonna keep me from the cold

  G                           Caad9           F                 Caad9
  and if the soul is hidden among ya, and its words may will my soul,

  G                       Caad9               F                     Caad9
  you can fill me up with what you got cos my hearts better keepin' cold


  Chorus:

         G       Caad9         F                 Caad9
  She is loooovvvee... and her ways are high and steep,

         G       Caad9           F                Caad9 
  She is loooovvvee... and I beleive her when she speaks,

    G    Caad9  F                     Caad9
  Love..... and her ways are high and steep,

         G       Caad9           F                Caad9
  She is loooovvvee... and I beleive her when she speaks


  Verse 2:

     G                         Caad9            F             Caad9
  You're in all my thoughts of passion, and the dreams and my delight

     G              Caad9                  F               Caad9
  Whatever stirs my mortal flame, well you keep it warm at night

     G                   Caad9             F          Caad9
  I don't know where you come from, no I havent got a clue

     G                  Caad9             F           Caad9
  All I know is Im in love, with someone who loves me too


  *Repeat Chorus X2*


  Instrumental - repeat chords

  
  *Repeat Chorus x2*


  Coda: Repeat "I do believe her when she speaks" X4 with riff played over top


  Riff: E|-------------------------|----|------------------------------------|
        B|----------------6--8-8---|----|---------6--8--8b10--------6--8--8--|  
        G|---0-----5h7-------------|-x2-|-0--5h7---------------5h7-----------|
        D|-------------------------|----|------------------------------------|
        A|-------------------------|----|------------------------------------|
        E|-------------------------|----|------------------------------------|


  The above riff is repeated periodically through the song, listen to the song 
  for timing.
            
Submit corrections

comments powered by Disqus
↑ Back to top | Oasis Tabs for She Is Love. Lyrics for acoustic guitar and electric guitar. 1 Tablatures and chords are parodies/interpretations of the original songs. You may use it for private study, scholarship, research or language learning purposes only