» » »

Roll With It Tabs (ver.2)

Artists:  A B C D E F G H I J K L M N O P Q R S T U V W X Y Z # 

Roll With It Tabs (ver.2)

Oasis
Rating:
0/5 (0 votes)

Hard to play? Try these video lessons and learn fast.
                x


  Oasis:Roll With It
  Morning Glory


 Intro
     D7    C7   G              D7   C7   A
---0--0000-0003-3333333----0-0000-0000----------------------
---3--3331-1110-0000000----3-3331-1112------2-0-2-3-2-0-2---
--5--5553-3330-0000000-.--5-5553-3332----------------------
--4--4442-2220-0000000-.--4-4442-2222----2-----------------
---5--5553-3332-2222222----5-5553-3330--0-------------------
--------------3-3333333-------------------------------------

Verse                    (    First Time      )  (  Second Time  )
    G    G    G    G     C  Em  Am    G          C  Em  Am   C  Em
--3333-3333-3333-3333--00-00--0000--3333-3333--00-00--0000-00-00--
--0000-0000-0000-0000--11-00--1111--0000-0000--11-00--1111-11-00--
-0000-0000-0000-0000--00-00--2222--0000-0000--00-00--2222-00-00-.
-0000-0000-0000-0000--22-22--2222--0000-0000--22-22--2222-22-22-.
--2222-2222-2222-2222--33-22--0000--2222-2222--33-22--0000-33-22--
--3333-3333-3333-3333--00-00--------3333-3333--00-00-------00-00--

  Am   C  Em D    G    G
--0000-00-00-2222-3333-3333----
--1111-11-00-3333-0000-0000----
--2222-00-00-2222-0000-0000----
--2222-22-22-0000-0000-0000----
--0000-33-22------2222-2222----
-------00-00------3333-3333----

 Play First Time without Second Time at start of verse ("coz it's all too much
for me to take"are the lyrics)
 On the repeat just play Second Time and go straight into next line of tabs (
while "I think I've got a feeling I'm lost inside" is sung)

 Middle
   F    F    G    G           F    F    C    D  D/C       D
-1111-1111-3333-3333------1111-1111-0000-22-00--------2222----
-1111-1111-0000-0000------1111-1111-1111-33-33--------3333----
2222-2222-0000-0000----.-2222-2222-0000-22-00--------2222----
3333-3333-0000-0000-X3-.-3333-3333-2222-00-22--------0000----
-----------2222-2222----------------3333----33--2-0-----------
-----------3333-3333------------------------00------3---------                                                           ---------------------------------------------
  
 Now Repeat Verse (over solo), middle and verse again then this till the end.
                                                                        
 --00-00-0000---   If you want the tabs for Rockin Chair or Country House 
 .-00-00-2222--.
 .-22-22-2222--.   In fact if you want Rockin Chair then a good idea will
 --33-22-0000--- be to look up A Hard Days Night on the archive...
 -----00--------
            
Hard to play? Try these video lessons and learn fast. | Correct




comments powered by Disqus
↑ Back to top | Tablatures and chords are parodies/interpretations of the original songs. You may use it for private study, scholarship, research or language learning purposes only