>
 >
Lord Dont Slow Me Down 2

Lord Dont Slow Me Down 2 Guitar Tabs

Oasis - Lord Dont Slow Me Down 2 chords, tabs, tablatures, lyrics

Guitar lessons | Add/correct | Request | Top 50 tabs Artists:  A B C D E F G H I J K L M N O P Q R S T U V W X Y Z 0-9

Lord Dont Slow Me Down 2 Guitar Tabs – Oasis

CD, Sheet music, Poster

Do you like Lord Dont Slow Me Down 2? Share with your friends now
ChordsChords v2Chords v3TabsTabs v2Ukulele
Right heres the solo. No-one has put a solo for this song on here so i thought i'd give 
a shot.


Key:
h = hammer-on
p = pull-off
b = bend string
\ = slide down

CAPO 2ND FRET REMEMBER


1:36
e|-----------------------------------|     x4
B|-----------------------------------|
G|-----------------------------------|
D|--------------0--2------2p0-0--2---|
A|--------0h2-2--------------2-------|
E|--0--0-0----------0--0-------------|

1:50
e|-----------------------------------|
B|-----------------------------------|
G|--------------0--2------2p0-0--2---|
D|--------0h2-2--------------2-------|
A|--0--0-0----------0--0-------------|
E|-----------------------------------|

1:54
e|-----------------------------------|
B|-----------------------------------|
G|-----------------------------------|
D|--------------0--2------2p0-0--2---|
A|--------0h2-2--------------2-------|
E|--0--0-0----------0--0-------------|

1:58
e|---7-----7-------5-----5\-------|
B|---10b12-10b12---8b10--8b10\----|
G|--------------------------------|
D|--------------------------------|
A|--------------------------------|
E|--------------------------------|

2:01
e|-----------------------------------|
B|-----------------------------------|
G|-----------------------------------|
D|--------------0--2------2p0-0--2---|
A|--------0h2-2--------------2-------|
E|--0--0-0----------0--0-------------|

peace.





Comments


Popular Oasis tabs & chords
Dont Go Away Bass Tabs
Hung In A Bad Place Bass Tabs
Fuckin In The Bushes Chords
Guess God Thinks Im Abel 1 Chords
The Girl In The Dirty Shirt Chords
A Bell Will Ring Intro Tabs
Digsy Diner Easy Tabs
Dont Go Away Tabs
Street Fighting Man Tabs
I Am The Walrus Ukulele


Song lyrics



↑ Back to top | Tablatures and chords are parodies/interpretations of the original songs. You may use it for private study, scholarship, research or language learning purposes only
© 2014 AZChords.com Contact us | Privacy policy | DMCA | Add/correct tabs | Request tabs | Top 50 tabs